» » »

Joan Baez, House Of The Rising Sun Tabs (ver.1)

Artists:  A B C D E F G H I J K L M N O P Q R S T U V W X Y Z # 

House Of The Rising Sun Tabs (ver.1)

Joan Baez Tabs
 Rating:
4/5 (4 votes)
House Of The Rising Sun lessons Tabs too difficult? Try these video lessons and learn fast
1
                ----------------------------------------------------------------------------
----------------------------------------------------------------------------



      Em              G                     B7

eb|--------------------------------------------------------------------------|
Bb|--------------------------------------------------------------------------|
Gb|-------0------------------0-------(0)(0)-2-------2------------------------|
Db|-------2---------------0-----0-----0--0--1-----1-----1--------------------|
Ab|----2-----2---------2-----------2--2--2--2--2-----------2--0--------------|
Eb|--0----------0-2-3----------------(3)(3)----------------------3--0--------|

     Em           B7              Em              B7               E

eb|-----------------------------------0------------------------------------|
Bb|--------------------0----------------0------------------0---------------|
Gb|-------0----------2--------------0-----0-------------2------------------|
Db|-----2---2-0----1--------------2---------2--0-----1---------------------|
Ab|---2----------2--------2-0---------------------2-----------2--0---------|
Eb|-0--------------------------0------------------------------------0------|

Repeat through song.

This is my first tab, so please leave some constructive critisism.


************************************

| /   slide up
| \   slide down
| h   hammer-on
| p   pull-off
| ~   vibrato
| +   harmonic
| x   Mute note
| b   Bend
| pb  Pre-bend
| br  Bend release
| pbr Pre-bend release
| brb Bend release bend

************************************
            
Submit corrections

comments powered by Disqus
↑ Back to top | Joan Baez Tabs for House Of The Rising Sun. Lyrics for acoustic guitar and electric guitar. 1 Tablatures and chords are parodies/interpretations of the original songs. You may use it for private study, scholarship, research or language learning purposes only