» » »

Jimmy Fallon, Snow Ball Tabs (ver.1)

Artists:  A B C D E F G H I J K L M N O P Q R S T U V W X Y Z # 

Snow Ball Tabs (ver.1)

Jimmy Fallon Tabs
Rating:
0/5 (0 votes)
Snow Ball lessons Tabs too difficult? Try these video lessons and learn fast
                VERSE:
e|---------------------------------------------|
B|---------------------------------------------|
G|---------------------------------------------|
D|--2-2-2-2-----3-3-3-3----5-5-5-5----7-7-7-7--|
A|--2-2-2-2-----3-3-3-3----5-5-5-5----7-7-7-7--|
E|--0-0-0-0-----1-1-1-1----3-3-3-3----5-5-5-5--|
pm  . . . .     . . . .    . . . .    . . . .

CHORUS:
e|---------------------------------------------|
B|---------------------------------------------|
G|---------------------------------------------|
D|--2-2-2-2-----3-3-3-3----5-5-5-5----7-7-7-7--|
A|--2-2-2-2-----3-3-3-3----5-5-5-5----7-7-7-7--|
E|--0-0-0-0-----1-1-1-1----3-3-3-3----5-5-5-5--|

BREAK:
e|--------------------------------|
B|--------------------------------|
G|---------------------------7-7--|
D|--7-7-7-7-7-7-7-7-7-7-7-7--7-7--|
A|--7-7-7-7-7-7-7-7-7-7-7-7--5-5--|
E|--5-5-5-5-5-5-5-5-5-5-5-5-------|

INTERLUDE:
e|--------------------------x-x----------------------------|
B|--------------------------x-x----------------------------|
G|--------------------------x-x----------------------------|
D|--7(bend a couple times)--x-x-(scrath with rhythem)------|
A|--------------------------x-x----------------------------|
E|--------------------------x-x----------------------------|

e|---------x-x------------------------------|
B|---------x-x------------------------------|
G|--7b7----x-x------------------------------|
D|---------x-x(scratch with rhythem again)--|
A|---------x-x------------------------------|
E|---------x-x------------------------------|

This is what it sounds like to me... please tell me if there is something I can do to make it better.   THANKS
            

comments powered by Disqus
↑ Back to top | Jimmy Fallon Tabs for Snow Ball. Lyrics for acoustic guitar and electric guitar. Tablatures and chords are parodies/interpretations of the original songs. You may use it for private study, scholarship, research or language learning purposes only