» » »

Jimmy Fallon, Idiot Boyfriend Bass tabs (ver.1)

Artists:  A B C D E F G H I J K L M N O P Q R S T U V W X Y Z # 

Idiot Boyfriend Bass tabs (ver.1)

Jimmy Fallon Tabs
 Rating:
4/5 (4 votes)
Idiot Boyfriend lessons Tabs too difficult? Try these video lessons and learn fast
                -------------------------------------------------------------------------------
-------------------------------------------------------------------------------


Tuning: Standard


VERSE

G|--4--6--8-----9-----11--11~------------------------------------------------|
D|---------------------------------------------------------------------------|
A|-2--4--6---7----7/9--------------------------------------------------------|
E|---------------------------------------------------------------------------|

Repeat a lot.


CHORUS

G|---------------------------------------4---4-------------------------------|
D|---------------------------------------------------------------------------|
A|-77-66-44----6-6-44-22---77-66-44---2-2--2---------------------------------|
E|---------------------------------------------------------------------------|

G|---------------------------------------------------------------------------|
D|----------------------------------------4-------4-4------------------------|
A|-77-66-44----6-6-44-22---77-66-44------------------------------------------|
E|------------------------------------2-2----2-22----------------------------|


2nd Bridge

G|---------------------------------------------------------------------------|
D|---------------------------------------------------------------------------|
A|-2-2-2--------2-2-2-------7/9--9\------------------------------------------|
E|---------------------------------------------------------------------------|




Song Order:
Verse
Chorus
Verse
Chorus
Bridge (same as verse)
2nd Bridge
Outro (same as verse)


| /  slide up
| \  slide down
| h  hammer-on
| p  pull-off
| ~  vibrato
| +  harmonic
| x  Mute note
===============================================================================
            
Submit corrections

comments powered by Disqus
↑ Back to top | Jimmy Fallon Bass for Idiot Boyfriend. Lyrics for acoustic guitar and electric guitar. Tablatures and chords are parodies/interpretations of the original songs. You may use it for private study, scholarship, research or language learning purposes only