» » »

Wild Thang Tabs (ver.1)

Artists:  A B C D E F G H I J K L M N O P Q R S T U V W X Y Z # 

Wild Thang Tabs (ver.1)

Jimi Hendrix
Rating:
0/5 (0 votes)

Hard to play? Try these video lessons and learn fast.
                
:"FuSiOnRoCkEr":

e|---------------------------------------------------------
b|---------------------------------------------------------
g|-----------7---7---9---9---7---7-------------------------
d|---7---7---7---7---9---9---7---7-------------------------
a|---7---7---5---5---7---7---5---5-------------------------
e|---5---5-------------------------------------------------

e|---------------------------------------------------------
b|---------------------------------------------------------
g|-----------7---7---9---9---7---7-------------------------
d|---7---7---7---7---9---9---7---7-------------------------
a|---7---7---5---5---7---7---5---5-------------------------
e|---5---5-------------------------------------------------

e|---------------------------------------------------------
b|---------------------------------------------------------
g|-----------7---7---9---9---7---7-------------------------
d|---7---7---7---7---9---9---7---7-------------------------
a|---7---7---5---5---7---7---5---5-------------------------
e|---5---5-------------------------------------------------

thcnx
            
Hard to play? Try these video lessons and learn fast. | Correct




comments powered by Disqus
↑ Back to top | Tablatures and chords are parodies/interpretations of the original songs. You may use it for private study, scholarship, research or language learning purposes only