» » »

Your Love Never Fails Tabs (ver.1)

Artists:  A B C D E F G H I J K L M N O P Q R S T U V W X Y Z # 

Your Love Never Fails Tabs (ver.1)

Jesus Culture
Rating:
0/5 (0 votes)

Hard to play? Try these video lessons and learn fast.
                Jesus Culture/Chris Quilala


114-116 bpm
Capo 3

Intro (x3) (First time electric 1 only)
Em, C, G, D


Bridge (x2) 
C, Em, D


Verse 1 (Electric 1 only)
Em          C        G           D
Nothing can separate,  Even if I ran away
Em                 C     G           D
Your love never fails

I know I still make mistakes, but
You have new mercies for me everyday
Your love never fails


Chorus (drums, bass, and all guitars come in)
C              G                   D 
You stay the same through the ages
Am                      C    
Your love never changes
              G                    D                Am
There maybe pain in the night but joy comes in the morning
C       G                 D 
   And when the oceans rage
        Am                  C    
I don't have to be afraid
           G                     D                
Because I know that You love me
  
Your love never fails


Bridge (x1)


Verse 2
The wind is strong and the water's deep but
I'm not alone here in these open seas
Cause Your love never fails

The chasm is far too wide
I never thought I'd reach the other side
But Your love never fails


Chorus
Bridge


Outro: (first 2x electric 1 only)
         C            Em                    D
You make, all things, work together for my good.



(These are the "good enough" tabs. Play with the notes and you'll hear
it)

Intro:
e|------------------------------------------------------------------------|
B|-----------6---------6-----------------6----8---------------------------|
G|-3~~~--5s7----7---5-----5---3~~~--5s7----7------------------------------|
D|------------------------------------------------------------------------|
A|------------------------------------------------------------------------|
E|------------------------------------------------------------------------|




Turn
e|------------------------------------------------------------------------|
B|------------------------------------------------------------------------|
G|------------------------------------------------------------------------|
D|---8-5-------8--------8-7-----------------------------------------------|
A|-6------6s10---8---6s8--------------------------------------------------|
E|------------------------------------------------------------------------|




Bridge:
e|------------------------------------------------------------------------|
B|-------------11-------10------------------------------------------------|
G|-8------8s12------10----------------------------------------------------|
D|------------------------------------------------------------------------|
A|------------------------------------------------------------------------|
E|------------------------------------------------------------------------|



If you have any input or corrections, check out my blog for more info and 
let me know if you have any songs you need help with. God bless!
            
Hard to play? Try these video lessons and learn fast. | Correct




comments powered by Disqus
↑ Back to top | Tablatures and chords are parodies/interpretations of the original songs. You may use it for private study, scholarship, research or language learning purposes only