» » »

Jesus Culture, One Thing Remains Tabs (ver.2)

Artists:  A B C D E F G H I J K L M N O P Q R S T U V W X Y Z # 

One Thing Remains Tabs (ver.2)

Jesus Culture Tabs
Rating:
5/5 (2 votes)
One Thing Remains lessons Tabs too difficult? Try these video lessons and learn fast
                By Jesus Culture

[Capo 4th Fret]

Intro Tab

e|---------------------------------------------------------------------------|
B|-------3-----------3-----------3--------3----------------------------------|
G|----0-----0-----0-----0-----2-----2--2-----0-------------------------------|
D|-2-----------0-----------0-------------------------------------------------|
A|---------------------------------------------------------------------------|
E|---------------------------------------------------------------------------|


Verse 1 [Chords: C, G, D] 

Higher than the mountains that I face...


Chorus [Chords: Em, C, G, D]

e|---------------------------------------------------------------------------|
B|-------3-----------3-----------3-----------3-------------------------------|
G|----0-----0-----0-----0-----0-----0-----2-----0----------------------------|
D|-2-----------------------------------0-------------------------------------|
A|-------------3-------------------------------------------------------------|
E|-------------------------3-------------------------------------------------|


Verse 2 [Chords: C, G, D]

On and on and on and on it goes... [Back to Chorus]


Break 

e|---------------------------------------------------------------------------|
B|-5-5-5-5-5-5-5--5-5-5-5-5-5-5--7-7-7-7-7-7--7-7-7-7-7-7--------------------|
G|-0-0-0-0-0-0-0--0-0-0-0-0-0-0--0-0-0-0-0-0--0-0-0-0-0-0--------------------|
D|-X-X-X-X-X-X-X--X-X-X-X-X-X-X--X-X-X-X-X-X--X-X-X-X-X-X--------------------|
A|-3-3-3-3-3-3-3--3-3-3-3-3-3-3--5-5-5-5-5-5--5-5-5-5-5-5--------------------|
E|---------------------------------------------------------------------------|

e|---------------------------------------------------------------------------|
B|-5-5-5-5-5-5-5--5-5-5-5-5-5-5--7-7-7-7-7-7--12-12-12-12-12-12--------------|
G|-0-0-0-0-0-0-0--0-0-0-0-0-0-0--0-0-0-0-0-0---0--0--0--0--0--0--------------|
D|-X-X-X-X-X-X-X--X-X-X-X-X-X-X--X-X-X-X-X-X---X--X--X--X--X--X--------------|
A|-3-3-3-3-3-3-3--3-3-3-3-3-3-3--5-5-5-5-5-5--10-10-10-10-10-10--------------|
E|---------------------------------------------------------------------------|


Bridge [Chords: C, G, D, Amaj7]

In death, In life, I'm confident and covered by the power...[Back to Chorus]
            

comments powered by Disqus
↑ Back to top | Jesus Culture Tabs for One Thing Remains. Lyrics for acoustic guitar and electric guitar. Tablatures and chords are parodies/interpretations of the original songs. You may use it for private study, scholarship, research or language learning purposes only