» » »

Jessie J, Do It Like A Dude Bass tabs (ver.1)

Artists:  A B C D E F G H I J K L M N O P Q R S T U V W X Y Z # 

Do It Like A Dude Bass tabs (ver.1)

Jessie J Tabs
 Rating:
4.2/5 (5 votes)
Do It Like A Dude lessons Tabs too difficult? Try these video lessons and learn fast
                Jessie J - Do it like a dude 


I Origionally tabbed this out for a 5 string... but you can also get away with 
playing this on a 4 string aswell.
(some of the notes have been changed to an octave higher)


You'll find a link to the 5 string version on here...








Intro


G|----------------------------------|
D|----------------------------------|
A|-15-15\3-------------15-15\3------|
B|----------------------------------|


Verse

G|-----------------------------------------------------------------------------------|
D|------------------------------------10---7-------------------------10-12-10-10-----|
A|-17-17-17\5--------17-17\5--------------------------------10-12-14-----------------|
E|----------------------------------8----5---------10-12-13----------------------8\--|


Chorus

G|-----------------------------|
D|-----------------------------|
A|-17-17\5-----------17-17\5---|
E|-----------------------------|


Interlude

G|--------------------------|
D|--------------------------|
A|--------------------------|
E|-15-15-15-15-13-13-13-13--|



|-----------------------------------------------------------------------------------------------|
|-----------------------------------------------------------------------------------------------|x3
|-----------------------------------------------------------------------------------------------|x3
|10-10-10-10-10-10-10-10-10-10-10-10-10-10-10-10-15-15-15-15-15-15-15-15-18-18-18-18-17-17-17-17|

 

G|-----------------------------------------------------------------------------------------------|
D|-----------------------------------------------------------------------------------------------|
A|-----------------------------------------------------------------------------------------------|
E|-10-10-10-10-10-10-10-10-10-10-10-10-10-10-10-10-15-15-15-15-15-15-15-15-18-18-18-18-17~----15~|



Play Chorus


Then play this for the second part to the chorus where you usually dont play 
anything (do it like a....)


G|----------------------------------------------|----------------------------------------------|
D|------------------------------10-12-10-10-----|------------------------------10-12-10-10-----|
A|-17-17\5-------------10-12-14-----------------|-17-17\5-------------10-12-14-----------------|
E|------------10-12-13----------------------8\--|------------10-12-13----------------------8\--|


END



Not a whole lot to this song but its a fun one to play,

Have a video of me playing the 5 string tab here (both exactly the same just some 
of the notes are an octave lower)






Harry Hopkinson =)
            
Submit corrections

comments powered by Disqus
↑ Back to top | Jessie J Bass for Do It Like A Dude. Lyrics for acoustic guitar and electric guitar. Tablatures and chords are parodies/interpretations of the original songs. You may use it for private study, scholarship, research or language learning purposes only