» » »

Jesse Mccartney, Beautiful Soul Tabs (ver.4)

Artists:  A B C D E F G H I J K L M N O P Q R S T U V W X Y Z # 

Beautiful Soul Tabs (ver.4)

Jesse Mccartney Tabs
 Rating:
4/5 (17 votes)
Beautiful Soul lessons Tabs too difficult? Try these video lessons and learn fast
1
                
Chords:A-E-F#m-D

hello to all....kung sakaling hindi nio matiming yan eh sabihin nio lang ha...punta kau 
account ko sa friendster....magmessage lang kau....tnx...


Jesse McCartney
BEAUTIFUL SOUL
Eto po ung intro....
        A            E          F#m             D
e|-----------0---|--------|----------------|---------------------------------|
B|---------------|---0----|------------5---|----3----------------------------|
G|-----------2---|--------|----------------|---------------------------------|
D|-------2-------|--------|------------2---|----0----------------------------|
A|---0-----------|---2----|--------4-------|---------------------------------|
E|---------------|--------|----2-----------|---------------------------------|

        A            E          F#m
e|-----------0---|--------|---------------------------|----------------------|
B|---------------|---0----|---------------------------|----------------------|
G|-----------2---|--------|---------------------------|----------------------|
D|-------2-------|--------|---------------------------|----------------------|
A|---0-----------|---2----|--------0-4---5------------|----------------------|
E|---------------|--------|----5-------5--------------|----------------------|


Eto naman po ung base nia...mga nasa 2min:13sec...

e|-------------------------------|-------------------------------------------|
B|-------------------------------|-------------------------------------------|
G|-------------------------------|-----------------------2-------------------|
D|---2h4--4-4-----2h4--4-4-------|--2h4--4-4-----2h4--4-----4----------------|
A|----------------------------2--|-------------------------------------------|
E|-------------------------------|-------------------------------------------|

e|---------------------------------------------------------------------------|
B|---------------------------------------------------------------------------|
G|---------------------------------------------------------------------------|
D|---2h4--4-4-----2h4--4-4---------------------------------------------------|
A|--------------------------2------------4-5---------------------------------|
E|---------------------------------0-----------------------------------------|

(this is the strumming from all the verses)

e|-----x-x-x--------x--x-x-x-x------------|
B|---2-x-x-x-----2--x--5-x-x-x--3--5------|
G|---2-x-x-x--1--2--x--x-x-x-x--2--2--1---|
D|---2-x-x-x--2--2--x--x-x-x-x--0--0--2---|
A|---0-x-x-x--2--0--x--4-x-x-x--------2---|
E|-----x-x-x--0-----x--2-x-x-x--------0---|



Chorus:
                        A    E
I don't want another pretty face
                    F#m       D
I don't want just anyone to hold
                  A             E
I don't want my love to go to waste
        F#m            D
I want you and your beautiful soul
            A            E
You're the one I wanna chase
            F#m          D
You're the one I wanna hold
                      A            E
I won't let another minute go to waste
        F#m            D            A-E-A-A-D-A-E
I want you and your beautiful soul

Verse 1:
A-E-A          F#m      D
I know that you are something special
A-E-A      F#m   D
To you I'd be always faithful
A-E-A     F#m  D
I want to be what you always needed
A-E-A                        F#m       D
Then I hope you'll see the heart in me

Chorus:
                        A    E
I don't want another pretty face
                    F#m       D
I don't want just anyone to hold
                  A             E
I don't want my love to go to waste
        F#m            D
I want you and your beautiful soul
            A            E
You're the one I wanna chase
            F#m          D
You're the one I wanna hold
                      A            E
I won't let another minute go to waste
        F#m            D            A-E-A-A-D
I want you and your beautiful soul
   D       A  E-A    A-D-A-E
(Your beautiful soul, yeah...)

Verse 2:
A-E-A          F#m       D
You might need time to think it over
A-E-A         F#m    D
But I'm just fine moving forward
A-E-A           F#m           D
I'll ease your mind, if you give me the chance
A-E-A                     F#m            D
I'll never make you cry, c'mon let's try

Chorus:
                        A    E
I don't want another pretty face
                    F#m       D
I don't want just anyone to hold
                  A             E
I don't want my love to go to waste
        F#m            D
I want you and your beautiful soul
            A            E
You're the one I wanna chase
            F#m          D
You're the one I wanna hold
                      A            E
I won't let another minute go to waste
        F#M            D
I want you and your beautiful soul

Bridge:
F#m---
Am I crazy for wanting you
F#m---
Baby, do you think you could want me too?
F#m                          E
I don't want to waste your time
F#m---
Do you see things the way I do?
F#m---
I just wanna know that you feel it too
F#m                       E
There is nothing left to hide

Chorus:

                        A    E
I don't want another pretty face
                    F#m       D
I don't want just anyone to hold
                  A             E
I don't want my love to go to waste
        F#m            D
I want you and your beautiful soul
            A            E
You're the one I wanna chase
            F#m          D
You're the one I wanna hold
                      A            E
I won't let another minute go to waste
        F#m            D
I want you and your beautiful soul
                        A    E
I don't want another pretty face
                    F#m       D
I don't want just anyone to hold
                  A             E
I don't want my love to go to waste
        F#m            D
I want you and your beautiful soul

A-E-F#m-D
Ohhhhhh, ohhhhhh
          A-E      F#m-D
Beautiful soul, yeah yeah yeah yeah
A-E-A-F#m-D     A-E-A-F#m-D
Ohhhhhhhh, yeah
              A-E-A    F#m-D                      A-E
Your beautiful soul, yeah yeah yeah...Beautiful Soul


| /  slide up
| \  slide down
| h  hammer-on
| p  pull-off
| ~  vibrato
| +  harmonic
| x  Mute note
            
Submit corrections

comments powered by Disqus
↑ Back to top | Jesse Mccartney Tabs for Beautiful Soul. Lyrics for acoustic guitar and electric guitar. 1 Tablatures and chords are parodies/interpretations of the original songs. You may use it for private study, scholarship, research or language learning purposes only