» » »

Jesse Mccartney, Best Day Of My Life Chords (ver.1)

Artists:  A B C D E F G H I J K L M N O P Q R S T U V W X Y Z # 

Best Day Of My Life Chords (ver.1)

Jesse Mccartney Tabs
 Rating:
4/5 (7 votes)
Best Day Of My Life lessons Tabs too difficult? Try these video lessons and learn fast
1
                Jesse McCartney
The Best Day Of My Life (A Cinderella Story)
____________________________________________________________________________
____________________________________________________________________________
----------------------------------------------------------------------------

Chords:

  Bb     F    Cm   Gm/5+
e|-1-| |-1-| |-3-| |-3-|
B|-3-| |-1-| |-4-| |-4-|
G|-3-| |-2-| |-5-| |-3-|
D|-3-| |-3-| |-5-| |-5-|
A|-1-| |-3-| |-3-| |-6-|
E|-x-| |-1-| |-x-| |-x-|

----------------------------------------------------------------------------

Intro:|-------5-6----------1-3-|------3-----3-2---------|
      |----3-------------------|----3----3--------------|
      |-0---------------3------|------------------------|
      |---------------3--------|-0----------------------| X4 (keep playing
      |------------------------|------------------------|     with verse1)
      |------------------------|------------------------|

-------------------------------------------
 [Verse 1]
 Woke up around a half past ten 
 Can't believe that I'm late again 
 Put down 'bout a quart of caffeine 
 To start my pulse and then 
 I grabbed my jeans off the floor 
 And I hit the door 
 Just the same ol' same
      Cm
 Just goes to show, you never know 
      Bb                                 
 When everything's 'bout to change

-------------------------------------------

 [Chorus]
Bb      F
 Just another day 
 Cm               Gm/5+
 Started out like any other
Bb      F
 Just another girl 
     Cm
 Who took my breath away 
Bb        F         Cm
 Then she turned around 
 She took me down
Bb      Cm             Gm/5+ 
 Just another day then I
                        Bb
 Had the best day of my life

-------------------------------------------

 [Verse 2]
 (Play Intro 3 times)
 Can’t say exactly what it was 
 She’s not the usual type 
 She wore a cowboy hat with her red Prada boots 
 And a Gwen Stefani smile 
 Then she pulled out a pen 
 And surprised me when 
 She wrote her number on my hand
      Cm
 Then she was gone, and from now on
     Bb
 I’m gonna be a different man

-------------------------------------------

 [chorus] 
 Just another day 
 Started out like any other 
 Just another girl 
 Who took my breath away 
 Then she turned around 
 She took me down 
 Just another day then I 
 Had the best day of my life

-------------------------------------------

[Bridge]
        |------------------------|------------------------|
        |------------------------|------------------------|
        |------------------------|------------------------|
        |-0--5--8-----5--8-------|-0--5--7-----5--7-------| X1
        |------------------------|------------------------|
        |------------------------|------------------------|
 I guess it goes to show 
 You never really know 
 When everything’s about to change

-------------------------------------------

 [Chorus] 
 Just another day 
 Started out like any other 
 Just another girl 
 Who took my breath away 
Bb        F         Cm
 Then she turned around 
 She took me down
Bb      Cm             Gm/5+ 
 Just another day then I
                        Bb
 Had the best day of my life
        F
 Just another day 
 Cm               Gm/5+
 Started out like any other
Bb      F
 Just another girl 
     Cm
 Who took my breath away 
Bb        F         Cm
 Then she turned around 
 She took me down
Bb      Cm             Gm/5+ 
 Just another day then I
                        Bb
 Had the best day of my life

Bb  F  Cm  (Until fadeout)
            
Submit corrections

comments powered by Disqus
↑ Back to top | Jesse Mccartney Chords for Best Day Of My Life. Lyrics for acoustic guitar and electric guitar. 1 Tablatures and chords are parodies/interpretations of the original songs. You may use it for private study, scholarship, research or language learning purposes only