» » »

Weak Tabs (ver.2)

Artists:  A B C D E F G H I J K L M N O P Q R S T U V W X Y Z # 

Weak Tabs (ver.2)

Jesse Barrera
Rating:
0/5 (0 votes)

Hard to play? Try these video lessons and learn fast.
                (Intro)
Album:

This is just the little lead he does at the beginning. I haven't tabbed a song in 
so bare with me.


e-------------------------------------------------------------------------|
B-------------------------------------------------------------------------|
G-------------------------------------------------------------------------|
D-------------------------------------------14----------------------------|
A---------12-------16-14-12-14----12--14h16-------------------------------|
E---12h14--------------------------------------12-------------------------|

e-------------------------------------------------------------------------|
B-------10--13^-----10---------10-12-14---12---10----9*-------------------|
G---9h11-------------------9h11---------9----9----9--9*-------------------|
D-------------------------------------------------------------------------|
A-------------------------------------------------------------------------|
E-------------------------------------------------------------------------|

That's it! Pretty easy once you get the rhythm down.

Legend:
h = Hammer-on
^ = bend string up (AWAY from you)
* = let ring out
            
Hard to play? Try these video lessons and learn fast. | Correct




comments powered by Disqus
↑ Back to top | Tablatures and chords are parodies/interpretations of the original songs. You may use it for private study, scholarship, research or language learning purposes only