» » »

Jesse Barrera, Try Tabs (ver.1)

Artists:  A B C D E F G H I J K L M N O P Q R S T U V W X Y Z # 

Try Tabs (ver.1)

Jesse Barrera Tabs
 Rating:
4/5 (4 votes)
Try lessons Tabs too difficult? Try these video lessons and learn fast
                I think this may be a little more specific than 
the other tabs I saw. Although it may not be 
fully correct, this one was done by ear. 
I guess it's pretty straight forward. 
guitar solo Jesse does, and I'll add it on. 
Enjoy and g'luck ! :)


Intro
e|---X---------X---X------------X---------X---X-------|
B|---X---------X---X------------X---------X---X-------|
G|-4-X----2--4-X-4-X----2--4--5-X----5--5-X-5-X----5--|
D|-0-X----0--0-X-0-X----0--0--5-X----5--5-X-5-X----5--|
A|---X---------X---X------------X---------X---X-------|
E|-3-X-3--3--3-X-2-X-2--2--2--5-X-5-------X-5-X-5-----| X1

Verse 1
e|---X---X---X---X---X---X---X---X--------------------|
B|---X---X---X---X---X---X---X---X--------------------|
G|-4-X-4-X-4-X-4-X-5-X-5-X-5-X-5-X--------------------|
D|-0-X-0-X-0-X-0-X-5-X-5-X-5-X-5-X--------------------|
A|---X---X---X---X---X---X---X---X--------------------|
E|-3-X-3-X-2-X-2-X-5-X-5-X-5-X-5-X--------------------| X4


Chorus
e|----X----X---X---X---X---X---X----------------------|
B|----X----X---X---X---X---X---X----------------------|
G|-12-X-12-X-7-X-7-X-5-X-5-X-5-X-5--------------------|
D|-12-X-12-X-7-X-7-X-5-X-5-X-5-X-5--------------------|
A|----X----X---X---X---X---X---X----------------------|
E|-12-X-12-X-7-X-7-X-5-X-5-X-5-X-5--------------------| X4

Verse 2
e|---X---X---X---X---X---X---X---X--------------------|
B|---X---X---X---X---X---X---X---X--------------------|
G|-4-X-4-X-4-X-4-X-5-X-5-X-5-X-5-X--------------------|
D|-0-X-0-X-0-X-0-X-5-X-5-X-5-X-5-X--------------------|
A|---X---X---X---X---X---X---X---X--------------------|
E|-3-X-3-X-2-X-2-X-5-X-5-X-5-X-5-X--------------------| X4

(Guitar Solo **Missing)

Chorus
e|----X----X---X---X---X---X---X----------------------|
B|----X----X---X---X---X---X---X----------------------|
G|-12-X-12-X-7-X-7-X-5-X-5-X-5-X-5--------------------|
D|-12-X-12-X-7-X-7-X-5-X-5-X-5-X-5--------------------|
A|----X----X---X---X---X---X---X----------------------|
E|-12-X-12-X-7-X-7-X-5-X-5-X-5-X-5--------------------| X4

(Ending)
            
Submit corrections

comments powered by Disqus
↑ Back to top | Jesse Barrera Tabs for Try. Lyrics for acoustic guitar and electric guitar. Tablatures and chords are parodies/interpretations of the original songs. You may use it for private study, scholarship, research or language learning purposes only