>
 >
Sweet Time 1

Sweet Time 1 Guitar Tabs

Jesse Barrera - Sweet Time 1 chords, tabs, tablatures, lyrics

Guitar lessons | Add/correct | Request | Top 50 tabs Artists:  A B C D E F G H I J K L M N O P Q R S T U V W X Y Z 0-9

Sweet Time 1 Guitar Tabs – Jesse Barrera

CD, Sheet music, Poster

Do you like Sweet Time 1? Share with your friends now
TabsTabs v2
---------------------------------------------------------------------------
                        Jesse Barrera, Sweet Time
---------------------------------------------------------------------------

One of my favourite Songs of Jesse Barrera. The URL, where I tried to here the chords 
out, is down there. If you have any questions to my tab, write me an e-mail (e-mail adress 
down there). Hope you enjoy. =D




Tuning: Standard

Chords:
      G#   (1)Cm7(2)  C#sus4 Fm7   D#m7  G#7   C#m7  A#m7  A#7
E|----4-----3-----8-----4-----x-----x-----4-----4-----6-----6----|
A|----6-----3-----x-----4-----8-----6-----6-----4-----x-----8----|
D|----6-----5-and-8-----6-----x-----x-----4-----6-----6-----6----|
G|----5-----3-----8-----5-----8-----6-----5-----4-----6-----7----|
B|----4-----4-----x-----6-----8-----6-----4-----5-----x-----6----|
e|----4-----3-----x-----4-----x-----x-----4-----4-----x-----6----|

Parts:

1.      Verse/Intro/Interlude:
  G#  Cm7(1)C#sus4 Cm7(2) Fm7        D#m7   G#7     C#sus4       C#m7
E|-4--x-----x-----x-8---x-----x-----x-----x-4---x| |x-----x|   |x-----x|
A|----x-3---x-4---x-----x-8---x-8---x-6---x-----x| |x-4---x|   |x-4---x|
D|--6-x-----x-----x-8-8-x-----x-----x-----x-4---x| |x-----x|4x |x-----x|4x
G|--5-x-3-3-x-5-5-x-8---x-8-8-x-8-8-x-6-6-x-5-5-x| |x-5-5-x|   |x-4-4-x|
B|----x-4---x-6---x-----x-8---x-8---x-6---x-----x| |x-6---x|   |x-5---x|
e|----x-----x-----x-----x-----x-----x-----x-----x| |x-----x|   |x-----x|

2.      Chorus:
  A#m7        D#m7        G#          F#7
E|-6---x-6---x-----x-----x-4---x-4---x-----x-----x|
A|-----x-----x-6---x-6---x-----x-----x-8---x-8---x|
D|-6-6-x-6-6-x-----x-----x-6-6-x-6-6-x-----x-----x| 2x
G|-6---x-6---x-6-6-x-6-6-x-5---x-5---x-8-8-x-8-8-x|
B|-----x-----x-6---x-6---x-----x-----x-8---x-8---x|
e|-----x-----x-----x-----x-----x-----x-----x-----x|

   A#7        C#sus4
E|x-6---x|   |x-----x|
A|x-----x|   |x-4---x|
D|x-6---x|4x |x-----x|4x
G|x-7-7-x|   |x-5-5-x|
B|x-----x|   |x-6---x|
e|x-----x|   |x-----x|


************************************

| x   Mute note

************************************ 

Songtext:

Intro: 1x

Verse: (2x)
Times are hard for me and you I know
It's time for me to let you go
To watch you go
And I'll sit back and wonder
What my life was like
When I had your eyes
Locked onto mine
Oh yeah

Chorus:
And if you're still waiting
I'm sure I'm done debating
If it's right to love you
If I could only repay you
For taking up all your sweet time
For taking up all your sweet time

Intro: 1x

Verse: (2x)
And if I had to second guess
I'd still be stuck in our mess
My regrets are something
I will always have
And I will sit back
And I'll wonder
What my life was like
When I had your lips
On my finger tips
Oh yeah

Chorus

Interlude: 2x

Chorus (2x)

End: Strum G#





Comments


Popular Jesse Barrera tabs & chords
If Youre Ready Chords
Tangled Up 1 Chords
Try Chords
Weak Chords
Colors Tabs
Love On A Lifeline Tabs
She Was Mine Tabs
Weak Intro Tabs
Aching Ukulele
I Dont Care Ukulele


Song lyrics



↑ Back to top | Tablatures and chords are parodies/interpretations of the original songs. You may use it for private study, scholarship, research or language learning purposes only
© 2014 AZChords.com Contact us | Privacy policy | DMCA | Add/correct tabs | Request tabs | Top 50 tabs