» » »

Jerryc, Whose Autumn Tabs (ver.3)

Artists:  A B C D E F G H I J K L M N O P Q R S T U V W X Y Z # 

Whose Autumn Tabs (ver.3)

Jerryc Tabs
 Rating:
4.3/5 (6 votes)
Whose Autumn lessons Tabs too difficult? Try these video lessons and learn fast
                (Intro)
Here's my version to Whose Autumn.. it's just the intro. Enjoy.

* = PM

E|-------------------------------------------------------------|
B|---------8------------------8-/12\8--------------------------|
G|----7/9------7~---------7/9----------8\7-p5---7p5h7p5-7/9----|
D|--5---------------5-5-------------------------------------7~-|
A|-------------------------------------------------------------|
E|-------------------------------------------------------------|

E|-------------------------------------------------------------|
B|-------------------------------------------------------------|
G|--7p5h7p5-7/9-7~--7b9r7-5~-----------------------------------|
D|-------------------------------------------------------------|
A|-------------------------------------------------------------|
E|-------------------------------------------------------------|


E|----------5------------------------8--8-8--8-8---------------|
B|-----5-----------------------5-----------------5b7r5---------|
G|--5----h7-----*5-5-5--*5--5-----h7------------------7p5------|
D|-------------------------------------------------------7\5---|
A|-------------------------------------------------------------|
E|-------------------------------------------------------------|


E|---------------0---------------------------------------------|
B|--------------1-------------t15------------------------------|
G|-------------0------------------------t17--t15---------------|
D|--2/3-\-2---2--------t15------------------------t17----------|
A|-----------3-------------------------------------------------|
E|-------------------------------------------------------------|


E--------------------------------------------------------------|
B------8--------------8--/12\8---------------------------------|
G---7/9-7~--------7/9------------8p7-\5---7p5h7p5--7/9---------|
D--5----------5-5--------------------------------------7-------|
A--------------------------------------------------------------|
E--------------------------------------------------------------|


E--------------------------------------------------------------|
B-------------------------------8------------------------------|
G--7p5h7p5--7/9--7--7b9r7--5~-----5---5---5-5---5----7p5-------|
D--------------------------------------------------------7p5---|
A--------------------------------------------------------------|
E--------------------------------------------------------------|


E---------------------------------------------------------8----|
B--------------------------------------------------------------|
G--5--7b9r7--7--5-*5-5-5-----------5~---------5--7--5~---------|
D-------------------------5--5--7-------5--7-------------------|
A--------------------------------------------------------------|
E--------------------------------------------------------------|


E--------------------------------------------------------------|
B--------8-------------8/12\8----------------------------------|
G----7/9---7-------7/9-----------8p7--\5--7p5h7p5----7/9-------|
D--5-----------5-5-----------------------------------------7---|
A--------------------------------------------------------------|
E--------------------------------------------------------------|


E--------------------------------------------------------------|
B----------------8---------------------------------------------|
G--7p5h7p5---7/9---7\5---7p5h7p5-------------------------------|
D---------------------------------7p5--------------------------|
A--------------------------------------------------------------|
E--------------------------------------------------------------|


im pretty sure most of this is right.. if its not then leave a comment or IM me at 
to make fun of me.

-Nate
            
Submit corrections

comments powered by Disqus
↑ Back to top | Jerryc Tabs for Whose Autumn. Lyrics for acoustic guitar and electric guitar. Tablatures and chords are parodies/interpretations of the original songs. You may use it for private study, scholarship, research or language learning purposes only