» » »

Alien Walker Tabs (ver.2)

Artists:  A B C D E F G H I J K L M N O P Q R S T U V W X Y Z # 

Alien Walker Tabs (ver.2)

Jerryc
Rating:
3/5 (1 vote)

Hard to play? Try these video lessons and learn fast.
                (Intro)
|--------------------------------------------|
|--------------------------------------------|
|--------------------------------------------|
|-----------------9----------t24-------------|
|-7-----t22--------7-----t22-----------------|
|-0------------------------------------------|

|---------------------------------------------------------------------------|
|---------------------------------------------------------------------------|
|-------------------------------------------------------9-9-----------------|
|--2-2-------------------------2-2----------------------7-7-----------------|
|--2-2--7-7--5-5--4-4--2/3\2---2-2--7-7--5-5--4--4-5------------------------|
|--0-0--7-7--5-5--4-4--2/3\2---0-0--7-7--5-5--4--4-5------------------------|

-------------------------------------------------------------10-12----------|
--------------------------------------------------------8-10----------------|
-----------------------------------------------------9----------------------|
--2-2------------------------2-2------------7-------------------------------|
--2-2--7-7--5-5--4-4--2/3\2--2-2--7-7--5-5----------------------------------|
--0-0--7-7--5-5--4-4--2/3\2--0-0--7-7--5-5----------------------------------|

----------------------------------------------------------------------------|
----------------------------------------------------------------------------|
-------------------------------------------------------9-9------------------|
--2-2------------------------2-2-----------------------7-7------------------|
--2-2--7-7--5-5--4-4--2/3\2--2-2--7-7--5-5--4--4-5--------------------------|
--0-0--7-7--5-5--4-4--2/3\2--0-0--7-7--5-5--4--4-5--------------------------|

----------------------------------------------------------------------------|
----------------------------------------------------------------------------|
----------------------------------------------------------------------------|
--2-2-----------------------------------------------------------------------|
--2-2--7-7--5-5--4-4--2/3\2---------------------------21\-------------------|
--0-0--7-7--5-5--4-4--2/3\2---------------------------21\-------------------|

----------------------------------------------------------------------------|
----------------------------------------------------------------------------|
----------19-18~~-16-15-14---16^-15-14-13-----------------------------------|
--14-17-------------------------------------------14^-14~~~-----------------|
----------------------------------------------------------------------------|
----------------------------------------------------------------------------|
            
Hard to play? Try these video lessons and learn fast. | Correct




comments powered by Disqus
↑ Back to top | Tablatures and chords are parodies/interpretations of the original songs. You may use it for private study, scholarship, research or language learning purposes only