» » »

Jerks, Sayaw Sa Bubog Tabs (ver.1)

Artists:  A B C D E F G H I J K L M N O P Q R S T U V W X Y Z # 

Sayaw Sa Bubog Tabs (ver.1)

Jerks Tabs
 Rating:
3.6/5 (5 votes)
Sayaw Sa Bubog lessons Tabs too difficult? Try these video lessons and learn fast
                (Intro)
e2 pattern sa mga nangangapa sa intro ng sayaw sa bubog
madugo nga lang haha ^_^ hope maka2long sa pagkapa nyo ^_^

tp=tremolo picking
s-slide
h=hammer on
intro:
-
|--12tp-10-10s8--8------7-8|-8s10------------------------------|
|---------------------8----|------8--8-------------------------|
|--------------------------|----------10-9---10-9---7-9-7--5-5-|
|--------------------------|-----------------------------------|
|--------------------------|-----------------------------------|
|--------------------------|-----------------------------------|
                
|--------------------------|-----------------------------------|
|-------------------5-6-8--|-------------------5h6-5-----------|
|------5---4-5--7----------|-------5-4--5---7--------7---5--7--|
|--5s7---------------------|--5--7-----------------------------|
|--------------------------|-----------------------------------|
|--------------------------|-----------------------------------|



|----------7--8s10--10s----|-12-12h10---8h7------13---13-13----|
|-5h6s8h10-----------------|----------------(8)--x----x--x-----|
|--------------------------|---------------------12---12-12----|
|--------------------------|-----------------------------------|
|--------------------------|-----------------------------------|
|--------------------------|-----------------------------------|


|-13---12h13---------------|---------------7-8--10---10-8--7---|
|-x---------------13-------|--------8-10-----------------------|
|-12-------------------12--|--9h10-----------------------------|
|--------------------------|-----------------------------------|
|--------------------------|-----------------------------------|
|--------------------------|-----------------------------------|


|------7--8--10s12---10-----8s7---8-|
|-10-8------------------------------|
|-----------------------------------|
|-----------------------------------|
|-----------------------------------|
|-----------------------------------|
            
Submit corrections

comments powered by Disqus
↑ Back to top | Jerks Tabs for Sayaw Sa Bubog. Lyrics for acoustic guitar and electric guitar. Tablatures and chords are parodies/interpretations of the original songs. You may use it for private study, scholarship, research or language learning purposes only