» » »

Sayaw Sa Bubog Bass tabs (ver.1)

Artists:  A B C D E F G H I J K L M N O P Q R S T U V W X Y Z # 

Sayaw Sa Bubog Bass tabs (ver.1)

Jerks
Rating:
0/5 (0 votes)

Hard to play? Try these video lessons and learn fast.
                Intro: F – C – G – C (5x)
G|----------------------------|
D|----------------------------|
A|-----3---3---------2-5---3--|
E|-1-5-------5-3---3----------|

G|-------------------------------|---2-5-------------------|
D|---------------------------2-5-|-3-------2-5---------2-5-|
A|-----3---3---------2-5---3-----|-------3-------2-5-3-----|
E|-1-5-------5-3---3-------------|-------------3-----------| repeat

Verse I

C             G7
Buwan ng Pebrero
G|-----------------|
D|-----------------|
A|-3-3-3h5---------|
E|---------3-3-3h5-|

C               G7
Buwan ng pagbabago
G|-----------------|
D|-----------------|
A|-3-3-3h5---------|
E|---------3-3-3h5-|

F                    C
Anong klaseng pagbabago
G|-----------------|
D|-----------------|
A|---------3-3-----|
E|-1-1-3h5---------|

C              G
Ano sa palagay mo?
G|-----------------------|
D|-----------------------|
A|-----3-3-3h5-----------|
E|-3h5---------33-33-3h5-|

C              G7
Bumaha ng pangako
G|-----------------|
D|-----------------|
A|-3-3-3h5---------|
E|---------3-3-3h5-|

C           G7
Lason ay isinubo
G|-----------------|
D|-----------------|
A|-3-3-3h5---------|
E|---------3-3-3h5-|

F               C   
Tuloy sa pagkakapako
G|-----------------|
D|-----------------|
A|---------3-3-----|
E|-1-1-3h5---------|

      G7        C
May utang pati apo
G|-----|
D|-----|
A|-3---|
E|---3-|

Pre-Chorus:

Am             Em      Am       Em
Kasinungalingan, isang kahangalan
G|---|---|---|---|
D|---|---|---|---|
A|-0-|---|-0-|---|
E|---|-0-|---|-0-|

           Dm         C	G                G7
Walang libreng kalayaan, Ito'y pinagbabayaran
G|---|---|---|-----|
D|-0-|---|---|-----|
A|---|-3-|---|-----|
E|---|---|-3-|-3x3-|

Am            Em		Am             Em
Palabas na moro-moro, ito kaya ay totoo?
G|---|---|---|---|
D|---|---|---|---|
A|-0-|---|-0-|---|
E|---|-0-|---|-0-|

Dm            C	   G7              C
EDSA ng pagbabago, saan, kailan, kanino?
G|---|---|-------|-------|
D|-0-|---|-------|---2-5-|
A|---|-3-|---2-5-|-3-----|
E|---|---|-3-----|-------|

Chorus:

F          C     G        C            F              C    G               C
Sayaw, sayaw, sayaw sa bubog.  Ang naglalakad ng tulog, tiyak na mauumpog (2x)
G|-------------------------|
D|-3-2-----------------2-5-|
A|-----5-3-2-----2-5-3-----|
E|-----------5-3-----------| 4x

Adlib: 
G|---2-5-------------------|-------------------------------|
D|-3-------2-5---------2-5-|---------------------------2-5-|
A|-------3-------2-5-3-----|-----3---3---------2-5---3-----|
E|-------------3-----------|-1-5-------5-3---3-------------| 2x

Verse II (same bass pattern as Verse I)

Tuloy ang ligaya, sa iba't ibang hacienda
Manggagawa't magsasaka, kumakalam ang sikmura
Sari-saring kaguluhan, nakawan, karahasan
Kailan n'yo titigilan, ang mga mamamayan

Repeat Pre-Chorus

Repeat Chorus

Adlib: 
G|---2-5-------------------|-------------------------------|
D|-3-------2-5---------2-5-|---------------------------2-5-|
A|-------3-------2-5-3-----|-----3---3---------2-5---3-----|
E|-------------3-----------|-1-5-------5-3---3-------------| 2x

Verse III

C             G7
Buwan ng Pebrero
G|-----------------|
D|-----------------|
A|-3-3-3h5---------|
E|---------3-3-3h5-|

C               G7
Buwan ng pagbabago
G|-----------------|
D|-----------------|
A|-3-3-3h5---------|
E|---------3-3-3h5-|

F                    C
Anong klaseng pagbabago
G|-----------------|
D|-----------------|
A|---------3-3-3h5-|
E|-1-1-3h5---------|

G7                    C
Saan, kailan, kanino?
G|-------|
D|-------|
A|---2-3-|
E|-3-----|

Adlib: 
G|---2-5-------------------|-------------------------------|
D|-3-------2-5---------2-5-|---------------------------2-5-|
A|-------3-------2-5-3-----|-----3---3---------2-5---3-----|
E|-------------3-----------|-1-5-------5-3---3-------------| 2x

Outro:
F          C     G        C            F              C    G               C
Sayaw, sayaw, sayaw sa bubog.  Ang naglalakad ng tulog, tiyak na mauumpog (2x)
G|---|
D|-3-|
A|---|
E|---| rest, . . .

. . . then at 4:04
tiyak na mauumpog
G|-------------|
D|-55-33-2-----|
A|---------5-3-|
E|-------------|
            
Hard to play? Try these video lessons and learn fast. | Correct




comments powered by Disqus
↑ Back to top | Tablatures and chords are parodies/interpretations of the original songs. You may use it for private study, scholarship, research or language learning purposes only