» » »

Jennifer Love Hewitt, My Only Love Chords (ver.2)

Artists:  A B C D E F G H I J K L M N O P Q R S T U V W X Y Z # 

My Only Love Chords (ver.2)

Jennifer Love Hewitt Tabs
 Rating:
4/5 (4 votes)
My Only Love lessons Tabs too difficult? Try these video lessons and learn fast
1
                This is for all you Sailor moon fans:)

intro
Am C Am C

Am         C            Em              G
Deep in my soul love so strong it takes control
Am          C                 Em                G
now we both know the secret's bare the feelings show
F      C   G              Em7                F
driven far apart i make a wish on a shooting star

                  C                 Am
there will come a day somewhere far away
                  Em           G
in your arms i'll stay my only love
                   C                         Am
even though you're gone love will still live on
                  Em             F
the feeling is so strong my only love my only love

guitar solo (acoustic plays chords indicated above tab)
   Am           C          Em       G
e|------|----------|----------|----------|-
B|------|-----8----|-----8----|----------|-
G|------|-7h9---9--|-7h9---9--|-7h9-9h7--|-
D|-5h7--|----------|----------|----------|-
A|------|----------|----------|----------|-
E|------|----------|----------|----------|-
             F     Am           C        Em             G     A
e|--------------------|----8-10-12h13-13-12--15---12-13-15-15-17--|
B|--------8-10-8h10-8-|-10-----------------13---13----------------|
G|-7-9-10-------------|-------------------------------------------|
D|--------------------|-------------------------------------------|
A|--------------------|-------------------------------------------|
E|--------------------|-------------------------------------------|

                  D                 Bm
there will come a day somewhere far away
                  F#m          A
in your arms i'll stay my only love
                           D                        Bm
you've reached the deepest part of the secret in my heart
                       F#m           A
i've known it from the start my only love

                  D                 Bm
there will come a day somewhere far away
                  F#m          A
in your arms i'll stay my only love
                           D                        Bm
you've reached the deepest part of the secret in my heart
                       F#m           A
i've known it from the start my only love
        D
my only love

Bm F#m A 

fade out
            
Submit corrections

comments powered by Disqus
↑ Back to top | Jennifer Love Hewitt Chords for My Only Love. Lyrics for acoustic guitar and electric guitar. 1 Tablatures and chords are parodies/interpretations of the original songs. You may use it for private study, scholarship, research or language learning purposes only