>
 >
Forever Autumn

Forever Autumn Guitar Tabs

Jeff Wayne - Forever Autumn chords, tabs, tablatures, lyrics

Guitar lessons | Add/correct | Request | Top 50 tabs Artists:  A B C D E F G H I J K L M N O P Q R S T U V W X Y Z 0-9

Forever Autumn Guitar Tabs – Jeff Wayne

CD, Sheet music, Poster

Do you like Forever Autumn? Share with your friends now
ChordsChords v2Chords v3TabsUkulele
Tempo = 111

The PDF version is much clearer. But ACSII is all i can  upload :/

Legend
L - tied note
h - hammer on/pull off
s - slide
v - brush up
^ - brush down


                                                                            
E ||---------------------------|----|----|----|--------------1-------------|
B ||-3-------------------------|----|----|----|--------3--------3----------|
G ||o2--0--2-----0-------------|----|----|----|-----2-----2--------2-------|
D ||o---------3-----2--3--0----|----|----|----|--0--------------------0----|
A ||---------------------------|----|----|----|--0-------------------------|
D ||-0-------------------------|----|----|----|--0-------------------------|

                                                               
----|-----------3----------------|-----------0--3s------------|
----|-----------------1----------|--5--3s-1-----------1-------|
----|--------0-----------0-------|----------------------------|
----|-----2-----------------2----|----------------------------|
----|--3-------------------------|----------------------------|
----|----------------------------|----------------------------|

                                                          
--1-------------------------|----------------------------|
-----------3--1-------------|----------------------------|
--------3-----2--2----------|--3--------3--2-----2-------|
-----3--------2-----2-------|--5-----5-----3--------3----|
--1--------------------0----|--5--5--------3--3----------|
----------------------------|----------------------------|

                                                               
--8--5----------------------|----|--------------1-------------|
--5--5-----8----------------|----|-----------3-----3----------|
-----------5-----7----------|----|--------3-----------3-------|
--------------------8-------|----|-----3-----------------3----|
----------------------------|----|--1-------------------------|
----------------------------|----|----------------------------|

                                                            ^     
--------------1-------------|--------------3-------------|--3---||
-----------3-----3----------|-----------1-----1----------|--1---||
--------2-----------2-------|--------0-----------0-------|--0--o||
-----3-----------------3----|-----2-----------------2----|--2--o||
--0-------------------------|--3-------------------------|--3---||
----------------------------|----------------------------|------||

                               ^                                  
--------------3-------------|--3----|--1--1-----1----------------|
-----------1-----1----------|--1----|--3--3-----3----------------|
--------0-----------0-------|--0----|--2--0-----2-----0--2--0----|
-----2-----------------2----|--2----|--0--0-----0----------------|
--3-------------------------|--3----|--0--0-----0----------------|
----------------------------|-------|--0--0-----0----------------|

                                                          
--1--1-----1----------------|----------------------------|
--3--3-----3----------------|--------3-----------1-------|
--2--0-----2-----0--2--0----|--------3-----------2-------|
--0--0-----0----------------|--3-----3-----3-------------|
--0--0-----0----------------|--1-----------3--------0----|
--0--0-----0----------------|-----------3----------------|

                                                               
----------------------------|--1--1-----1----------------|----|
--------4-----------4-------|--3--3-----3----------------|----|
--------3-----3-----3-------|--2--0-----2-----0--2--0----|----|
--1-----1-----1-----1-------|--0--0-----0----------------|----|
--1--------1--------1--1----|--0--0-----0----------------|----|
----------------------------|--0--0-----0----------------|----|

                                                          
----------------------------|----------------------------|
--------3-----------1-------|--------4-----------4-------|
--------3-----------2-------|--------3-----3-----3-------|
--3-----3-----3-------------|--1-----1-----1-----1-------|
--1-----------3--------0----|--1--------1--------1--1----|
-----------3----------------|----------------------------|

                                                            ^             
----------------------------|----------------------------|--1----|------||
--6L----6--5L----5--3L------|--3--1L----1----------------|--3----|------||
--5L----5--5L----5--3L------|--3--2L----2--3-----3-------|--2----|-----o||
--5L----5--5L----5--3L------|--3--2L----2--5-----5-------|--3----|-----o||
----------------------------|--------------5-----5-------|--1----|------||
----------------------------|----------------------------|-------|------||

                               ^       ^        ^           v     
--------------3-------------|--3----|--1--------1-----------1----|
-----------1-----1----------|--1----|--3--------3-----------3----|
--------0-----------0-------|--0----|--2--------2-----------2----|
-----2-----------------2----|--2----|--0--------0-----------0----|
--3-------------------------|--3----|--0--------0-----------0----|
----------------------------|-------|--0--------0-----------0----|

  ^        ^           v       ^        ^           v     
--1--------1-----------1----|--0--------0-----------0----|
--3--------3-----------3----|--1--------1-----------1----|
--2--------2-----------2----|--0--------0-----------0----|
--0--------0-----------0----|--2--------2-----------2----|
--0--------0-----------0----|--3--------3-----------3----|
--0--------0-----------0----|----------------------------|

  ^        ^           v       ^        ^           v     
--0--------0-----------0----|--1--------1-----------1----|
--1--------1-----------1----|--3--------3-----------3----|
--0--------0-----------0----|--2--------2-----------2----|
--2--------2-----------2----|--0--------0-----------0----|
--3--------3-----------3----|--0--------0-----------0----|
----------------------------|--0--------0-----------0----|

  ^        ^           v     
--1--------1-----------1----|
--3--------3-----------3----|
--2--------2-----------2----|
--0--------0-----------0----|
--0--------0-----------0----|
--0--------0-----------0----|

                                                     
----------------------------------------------------|
--3-----1-----3-------------------------------------|
--2-----0-----2-----------------2-------------------|
--0-----0-----0-----------0--3--------------0L------|
--0-----0-----0-----------------------------0-------|
--------------------------------------------0-------|

                                                          
----------------------------|----------------------------|
----------------------------|--------1--1L----------1----|
-----------2----------------|--0-----0--0L----------0----|
--0--3-----------3--0--3----|--2-----2--2L----------2----|
----------------------------|--3-------------------------|
----------------------------|----------------------------|

                                                          
-----------0--3s------------||---------------------------|
--5--3s-1-----------1-------||----------------3----------|
----------------------------||o------3--------2----------|
----------------------------||o------3-----3--------5L---|
----------------------------||-1--------0-----------5L---|
----------------------------||---------------------------|

                                                                   
----------------------------|--0----|---------------------------|||
----------------------------|--1----|---------------------------|||
-----3-----2----------------|--0----|-----------0--------------o|||
--5--5-----3-----3--0--3----|--2----|--------------3--2L----2--o|||
--5-------------------------|--3----|---------------------------|||
----------------------------|-------|---------------------------|||

                                                         
-1--------1L----------1----|--1-------------------------|
-3--------3L----------3----|--3-------------------------|
o2--------2L----------2----|--2--------0----------------|
o0--------0L----------0----|--0-----------3--2L----2----|
-0--------0L----------0----|--0-------------------------|
-0--------0L----------0----|--0-------------------------|

                                                          
--0--------0L----------0----|--0------------------------||
--1--------1L----------1----|--1------------------------||
--0--------0L----------0----|--0--------0--------------o||
--2--------2L----------2----|--2-----------3--2L----2--o||
--3--------3L----------3----|--3------------------------||
----------------------------|---------------------------||

                                                          
----------------------------|----------------------------|
--------3-----------1-------|--------4-----------4-------|
--------3-----------2-------|--------3-----3-----3-------|
--3-----3-----3-------------|--1-----1-----1-----1-------|
--1-----------3--------0----|--1--------1--------1--1----|
-----------3----------------|----------------------------|

                                                               
--1--1-----1----------------|----|----------------------------|
--3--3-----3----------------|----|--------3-----------1-------|
--2--0-----2-----0--2--0----|----|--------3-----------2-------|
--0--0-----0----------------|----|--3-----3-----3-------------|
--0--0-----0----------------|----|--1-----------3--------0----|
--0--0-----0----------------|----|-----------3----------------|

                                                          
----------------------------|----------------------------|
--------4-----------4-------|--6L----6--5L----5--3L------|
--------3-----3-----3-------|--5L----5--5L----5--3L------|
--1-----1-----1-----1-------|--5L----5--5L----5--3L------|
--1--------1--------1--1----|----------------------------|
----------------------------|----------------------------|

                               ^               ^
----------------------------|--1----|-------|--1----|----||
--3--1L----1----------------|--3----|-------|--3----|----||
--3--2L----2--3-----3-------|--2----|-------|--2----|----||
--3--2L----2--5-----5-------|--3----|-------|--0----|----||
--------------5-----5-------|--1----|-------|--0----|----||
----------------------------|-------|-------|--0----|----||





Comments


Popular Jeff Wayne tabs & chords
Eve Of The War Chords
Eve Of The War 1 Chords
Forever Autumn Chords
Thunderchild Chords
Eve Of The War Intro Tabs
Horsell Common And The Heat Ray 1 Tabs
Brave New World Ukulele
Eve Of The War Ukulele
Forever Autumn Ukulele
Thunderchild Ukulele


Song lyrics



↑ Back to top | Tablatures and chords are parodies/interpretations of the original songs. You may use it for private study, scholarship, research or language learning purposes only
© 2014 AZChords.com Contact us | Privacy policy | DMCA | Add/correct tabs | Request tabs | Top 50 tabs