» » »

Thats All I Ask Tabs (ver.1)

Artists:  A B C D E F G H I J K L M N O P Q R S T U V W X Y Z # 

Thats All I Ask Tabs (ver.1)

Jeff Buckley
Rating:
0/5 (0 votes)

Hard to play? Try these video lessons and learn fast.
                
The intro goes a bit like this and falls into chords.

E|--------------------------------------------------------|
B|--------------------------------------------------------|
G|---------7-------7---------9-------------7-------7------|
D|-------0---0---0--0>0----0---0---0-0<0-0---0---0---0----|
A|-----7-------7----7>9--9-------9---9<7-------7----------|
E|---0-----------------0----------------------------------|

E|--------------------------------------------------------|
B|--------------------------------------------------------|
G|---5---7---9---5----------------------------------------|
D|---0---0---0---0----------------------------------------|
A|---5---7---9---5----------------------------------------|
E|---0---0---0---0----------------------------------------|

I think these chords are similar to the ones in the break/verse.
Sorry, i know its not much to go on, but have a play.

E|---7---10--10---5---5---3----------------------------------|
B|---7---8---12---7---5---3----------------------------------|
G|---7---9---12---7---6---4----------------------------------|
D|---5---7---9----7---4---2----------------------------------|
A|---0---0---0----5------------------------------------------|
E|----------------0------------------------------------------|
            
Hard to play? Try these video lessons and learn fast. | Correct




comments powered by Disqus
↑ Back to top | Tablatures and chords are parodies/interpretations of the original songs. You may use it for private study, scholarship, research or language learning purposes only