» » »

J.B.O., Bolle Bass tabs (ver.1)

Artists:  A B C D E F G H I J K L M N O P Q R S T U V W X Y Z # 

Bolle Bass tabs (ver.1)

J.B.O. Tabs
Rating:
0/5 (0 votes)
Bolle lessons Tabs too difficult? Try these video lessons and learn fast
                Tuning: Standard

Intro:

G|---------------------------------------------------------|
D|---------------------------------------------------------|
A|-2-2-22-2-2-2---------------------2-2-2-2----------------|
E|---------------0-0-00-0-0-0--4-4-4---------2-2-22-2-2-2--|


G|---------------------------------------------------------|
D|---------------------------------------------------------|
A|-2-2-22-2-2-2---------------------2-2-2-2----2---1---2---|
E|---------------0-0-00-0-0-0--4-4-4-----------------------|

Vers 1

G|---------------------------------------| x2
D|---------------------------------------|
A|-2-2-2-2--------------------2-2-2-2----|
E|----------0-0-0-0--2-2-2-2-------------|

G|------------------------------|
D|------------------------------|
A|-----4~-------4~------4---4---|
E|-2-2-----2-2------2-2---2-----|

G|---------------------------------------| x4
D|---------------------------------------|
A|-2-2-2-2--------------------2-2-2-2----|
E|----------0-0-0-0--2-2-2-2-------------|

G|------------------------------|
D|------------------------------|
A|-----4~-------4~------4---4---|
E|-2-2-----2-2------2-2---2-----|

G|---------------------------------------| x2
D|---------------------------------------|
A|-2-2-2-2--------------------2-2-2-2----|
E|----------0-0-0-0--2-2-2-2-------------|

Vers 2

G|---------------------------------------| x2
D|---------------------------------------|
A|-2-2-2-2--------------------2-2-2-2----|
E|----------0-0-0-0--2-2-2-2-------------|

G|------------------------------|
D|------------------------------|
A|-----4~-------4~------4---4---|
E|-2-2-----2-2------2-2---2-----|

G|---------------------------------------| x2
D|---------------------------------------|
A|-2-2-2-2--------------------2-2-2-2----|
E|----------0-0-0-0--2-2-2-2-------------|

Chorus:

G|---------------------------------------| x2
D|---------------------------------------|
A|---------------------------------------|
E|-4-4-4-4--0-0-0-0--2-2-2-2--0-0-0-0----|

G|---------------------------------------|
D|---------------------------------------|
A|----------2-2-2-2--4-4-4-4-------------|
E|-4-4-4-4---------------------2-2-2-2---|

G|---------------------------------------|
D|---------------------------------------|
A|-2-2-2-2--------------------2-2-2-2----|
E|----------0-0-0-0--2-2-2-2-------------|


Intro


Vers 3

G|---------------------------------------| x2
D|---------------------------------------|
A|-2-2-2-2--------------------2-2-2-2----|
E|----------0-0-0-0--2-2-2-2-------------|

G|------------------------------|
D|------------------------------|
A|-----4~-------4~------4---4---|
E|-2-2-----2-2------2-2---2-----|

G|---------------------------------------| x2
D|---------------------------------------|
A|-2-2-2-2--------------------2-2-2-2----|
E|----------0-0-0-0--2-2-2-2-------------|

G|---------------------------| x2
D|---------------------------|
A|-2--2--------------2--2----|
E|-------0--0--2--2----------|

G|-----------------------|
D|-----------------------|
A|----4-----4-----4------|
E|-2-----2-----2-----2---|

G|---------------------------------------| x2
D|---------------------------------------|
A|-2-2-2-2--------------------2-2-2-2----|
E|----------0-0-0-0--2-2-2-2-------------|


Chorus


Intro


Bridge:

G|-------------------------| x2
D|-------------------------|
A|-2--------------2--------|
E|------0----2-------------|

G|-----------------------|
D|-----------------------|
A|----4-----4-----4------|
E|-2-----2-----2-----2---|

G|---------------------------------------| x2
D|---------------------------------------|
A|-2-2-2-2--------------------2-2-2-2----|
E|----------0-0-0-0--2-2-2-2-------------|


Chorus


G|---------------------------------------|
D|---------------------------------------|
A|-2-2-2-2--------------------2-2-2-2----|
E|----------0-0-0-0--2-2-2-2-------------|

Das wars :)

Geiles Lied!
            
Submit corrections

comments powered by Disqus
↑ Back to top | J.B.O. Bass for Bolle. Lyrics for acoustic guitar and electric guitar. Tablatures and chords are parodies/interpretations of the original songs. You may use it for private study, scholarship, research or language learning purposes only