» » »

J.B.O., Bolle Tabs (ver.1)

Artists:  A B C D E F G H I J K L M N O P Q R S T U V W X Y Z # 

Bolle Tabs (ver.1)

J.B.O. Tabs
 Rating:
4/5 (4 votes)
Bolle lessons Tabs too difficult? Try these video lessons and learn fast
1
                JBO - Bolle                                              


Intro:

Git. 1:
                                                                                 
E||-------------------------|--7----7---7-7-----------|-------7-----------------|
B||----------------------7--|----------------7-----7--|--9--------9-7--7--------|
G||-----------6-8-----8-----|-------------------8-----|-------------------8-----|
D||--9----9--------9--------|-------------------------|----------------------9--|
A||-------------------------|-------------------------|-------------------------|
E||-------------------------|-------------------------|-------------------------|
                                                                              
-------------------------|-------------------------|--7----7---7-7-----------|
-------7---9-7-----------|----------------------7--|----------------7-----7--|
--6-------------9--8--6--|-----------6-8-----8-----|-------------------8-----|
-------------------------|--9----9--------9--------|-------------------------|
-------------------------|-------------------------|-------------------------|
-------------------------|-------------------------|-------------------------|

-------7-----------------|----------------------|
--9--------9-7--7--------|----------------------|
-------------------8-----|----------------------|
----------------------9--|--4------3------4-----|
-------------------------|--2------1------2-----|
-------------------------|----------------------|


Git. 2:

E||-------------------------|-------------------------|-------------------------|
B||-------------------------|-------------------------|-------------------------|
G||-------------------------|-------------------------|-------------------------|
D||--4----4---4-4--4--4--4--|-------------------------|-----------4-4--4--4--4--|
A||--2----2---2-2--2--2--2--|--2----2---2-2--2--2--2--|--6----6---2-2--2--2--2--|
E||-------------------------|--0----0---0-0--0--0--0--|--4----4-----------------|
                                                                         
-------------------------|-------------------------|-------------------------|
-------------------------|-------------------------|-------------------------|
-------------------------|-------------------------|-------------------------|
-------------------------|--4----4---4-4--4--4--4--|-------------------------|
--4----4---4-4--4--4--4--|--2----2---2-2--2--2--2--|--2----2---2-2--2--2--2--|
--2----2---2-2--2--2--2--|-------------------------|--0----0---0-0--0--0--0--|
                                                                        
-------------------------|----------------------|
-------------------------|----------------------|
-------------------------|----------------------|
-----------4-4--4--4--4--|--4------3------4-----|
--6----6---2-2--2--2--2--|--2------1------2-----|
--4----4-----------------|----------------------|


Strophe:

--------------------------|--------------------------|--------------------------|
--------------------------|--------------------------|--------------------------|
--------------------------|--------------------------|--------------------------|
--4--4--4--4--------------|--------------4--4--4--4--|--4--4--4--4--------------|
--2--2--2--2--2--2--2--2--|--4--4--4--4--2--2--2--2--|--2--2--2--2--2--2--2--2--|
--------------0--0--0--0--|--2--2--2--2--------------|--------------0--0--0--0--|

--------------------------|
--------------------------|
--------------------------|
--------------4--4--4--4--|
--4--4--4--4--2--2--2--2--|
--2--2--2--2--------------|
                                                                            
------------------------|-----------------------|--------------------------|
------------------------|-----------------------|--------------------------|
------------------------|-----------------------|--------------------------|
--------4----------4----|--------4--4--4--------|--4--4--4--4--------------|
--4--4--4----4--4--4----|--------4--4--4--------|--2--2--2--2--2--2--2--2--|
--2--2--2----2--2--2----|--2--2--2--2--2--------|--------------0--0--0--0--|
                                                               
--------------------------|--------------------|--------------------|
--------------------------|--------------------|--------------------|
--------------------------|--4-----------------|-----------4--------|
--------------4--4--4--4--|--4--------2--------|--6--------4--------|
--4--4--4--4--2--2--2--2--|--2--------2--------|--6--------2--------|
--2--2--2--2--------------|-----------0--------|--4-----------------|

Refrain:
                                                                                 
|--------------------|--------------------|
|--------------------|--------------------|
|--------------------|--------------------|
|--6--------2--------|--4-----------------|
|--6--------2--------|--4--------6--------|
|--4--------0--------|--2--------6--------|


                                                                                    
--------------------|--------------------|--------------------|--------------------|
--------------------|--------------------|--------------------|--------------------|
--------------------|--------------------|-----------4--------|--6-----------------|
--6--------2--------|--4-----------------|--6--------4--------|--6--------4--------|
--6--------2--------|--4--------6--------|--6--------2--------|--4--------4--------|
--4--------0--------|--2--------6--------|--4-----------------|-----------2--------|


--------------------------|--------------------------|
--------------------------|--------------------------|
--------------------------|--------------------------|
--4--4--4--4--------------|--------------4--4--4--4--|
--2--2--2--2--2--2--2--2--|--4--4--4--4--2--2--2--2--|
--------------0--0--0--0--|--2--2--2--2--------------|



Intro Riff

Strophe

Strophe ohne Git

Refrain

Intro Riff

Brigde (nur Bass)

Refrain
            
Submit corrections

comments powered by Disqus
↑ Back to top | J.B.O. Tabs for Bolle. Lyrics for acoustic guitar and electric guitar. 1 Tablatures and chords are parodies/interpretations of the original songs. You may use it for private study, scholarship, research or language learning purposes only