» » »

Reaching Chords (ver.1)

Artists:  A B C D E F G H I J K L M N O P Q R S T U V W X Y Z # 

Reaching Chords (ver.1)

Jason Reeves
Rating:
4/5 (2 votes)

Tabs too difficult? Try these video lessons and learn fast.
                there was only one chord for this song on this site so i thought id add the correct one

capo 8th fret

 -------------------------------------------------------------------------------
-------------------------------------------------------------------------------

Tuning: standard

    girl       summer     rain/soft     warm    delicate/I    foolish
e|----3-----------3-----------3-----------3-----------3----------3-----------|
B|----3-----------3-----------3-----------3-----------3----------3-----------|
G|----0-----------2-----------0-----------0-----------0----------2-----------|
D|----0-----------0-----------2-----------2-----------0----------0-----------|
A|----2-----------0-----------2-----------3-----------2----------0-----------|
E|----3-----------2-----------x-----------x-----------3----------2-----------|

  boy/trying      drop   toungue/theres    many          I        enough
e|----3------------3------------0------------3-----------0-----------3-------|
B|----3------------3------------1------------3-----------1-----------3-------|
G|----0------------0------------2------------0-----------2-----------0-------|
D|----2------------2------------2------------2-----------2-----------2-------|
A|----2------------3------------0------------3-----------0-----------3-------|
E|----x------------x------------0------------x-----------0-----------x-------|


then from there you just strum the chorus using the chords used. its pretty simple and 
strumming sounds best if you stum all the strings once down then hit the e,B,and G 
and repeat.
            
Tabs too difficult? Try these video lessons and learn fast.


comments powered by Disqus
↑ Back to top | Tablatures and chords are parodies/interpretations of the original songs. You may use it for private study, scholarship, research or language learning purposes only