» » »

Jan Hegenberg, Auf In Die Schlacht Tabs (ver.2)

Artists:  A B C D E F G H I J K L M N O P Q R S T U V W X Y Z # 

Auf In Die Schlacht Tabs (ver.2)

Jan Hegenberg Tabs
Rating:
0/5 (0 votes)
Auf In Die Schlacht lessons Tabs too difficult? Try these video lessons and learn fast
                (Intro)
Tuning: 1/2 step up

D#|-------5--5--3-------------|-------------------3--3--|
A#|--3-------------6--5----3--|--1--1--------1----------|
F#|---------------------------|-------------------------|
C#|---------------------------|-------------------------|
G#|---------------------------|-------------------------|
D#|---------------------------|-------------------------|

D#|--1hp-------0--------------|--------5--5--3-------------|
A#|--------3------3-----------|--3--------------6--5--3----|
F#|------------------2s7------|----------------------------|
C#|---------------------------|----------------------------|
G#|---------------------------|----------------------------|
D#|---------------------------|----------------------------|

D#|-----------------------------|------------------------|
A#|--1--1-----------------------|------------------------|
F#|--------------0--2hp---------|------------------------|
C#|---------------------3--2----|--0-----0-------0-------|
G#|-----------------------------|-----3------------------|
D#|-----------------------------|------------------------|


Chords:

Verse 1:

    Em                  D
 Verabschiedet euch vom Weib und vom Kind,
          A                    C           D
 weils vielleicht eure letzten Worte sind.
 Em                  D
 Rüstet euch für die große Schlacht,
          A              C      D
 die euch dann zu Helden macht.
 Em                   D
 Auf in den Kampf für Frieden und Ruhm,
      A                     C        D
 eine epische Schlacht soll es sein.
     Em                     D
 Trigardons Streiter werden niemals ruhn,
     A                C      D
 die Welt vom Übel befreien.

 C            
 Aaaaaaaahhhh hhhhhaaa
 D
 aaaaaaaahhhh hhhhaaaa!


Chorus:

 Em
 Schärft euer Schwert
 D
 Spitzt euren Pfeil
       C                  A
 Zieht aus für Trigardons Heil
   Em
 Vergießt euren Schweiß
    D
 Vergießt eurer Blut
 A                  C
 Götter, gebt ihnen Mut
 D          Em     D
 gebt ihnen Muuuuuuuuuuut
            C      A
 gebt ihnen Muuuuuuuuuuut
            Em     D
 gebt ihnen Muuuuuuuuuuut
            C      A
 gebt ihnen Muuuuuuuuuuut


Verse 2:

 Em                     D
 Dieses Lied soll unsre Krieger ehren,
         A                      C    
 ist ein Nachruf von Stärke und Mut.
 Em                D         
 Freiheit, ist was wir begehren,
 A                      C     
 nieder mit des Feinden Brut.

 C            
 Aaaaaaaahhhh hhhhhaaa
 D
 aaaaaaaahhhh hhhhaaaa!


Chorus:

 Em
 Schärft euer Schwert
 D
 Spitzt euren Pfeil
       C                  A
 Zieht aus für Trigardons Heil
   Em
 Vergießt euren Schweiß
    D
 Vergießt eurer Blut
 A                  C
 Götter! gebt ihnen Mut
 D          Em     D
 gebt ihnen Muuuuuuuuuuut
            C      A
 gebt ihnen Muuuuuuuuuuut
            Em     D
 gebt ihnen Muuuuuuuuuuut
            C      A
 gebt ihnen Muuuuuuuuuuut


Verse 3:

Em                     D
 Ist das Feld auch vom Blute getränkt,
     A                    C           D
 hat keiner von euch sein Leben verschenkt.
 Em                     D
 Denn eurer Weib ja und euer Kind,
     A                 C          
 ein Leben in Freiheit verbringt.

 C            
 Aaaaaaaahhhh hhhhhaaa
 D
 aaaaaaaahhhh hhhhaaaa!


Chorus:

 Em
 Schärft euer Schwert
 D
 Spitzt euren Pfeil
       C                  A
 Zieht aus für Trigardons Heil
   Em
 Vergießt euren Schweiß
    D
 Vergießt eurer Blut
 A                  C
 Götter! gebt ihnen Mut
 D          Em     D
 gebt ihnen Muuuuuuuuuuut
            C      A
 gebt ihnen Muuuuuuuuuuut
            Em     D
 gebt ihnen Muuuuuuuuuuut
            C      A
 gebt ihnen Muuuuuuuuuuut
            Em      
 gebt ihnen Muuut

I hope it will help you! :)
            
Submit corrections

comments powered by Disqus
↑ Back to top | Jan Hegenberg Tabs for Auf In Die Schlacht. Lyrics for acoustic guitar and electric guitar. Tablatures and chords are parodies/interpretations of the original songs. You may use it for private study, scholarship, research or language learning purposes only