» » »

Janes Addiction, My Cat's Name Is Maceo Tabs (ver.1)

Artists:  A B C D E F G H I J K L M N O P Q R S T U V W X Y Z # 

My Cat's Name Is Maceo Tabs (ver.1)

Janes Addiction Tabs
 Rating:
4/5 (4 votes)
My Cat's Name Is Maceo lessons Tabs too difficult? Try these video lessons and learn fast
                -------------------------------------------------------------------------------
	         MY CAT'S NAME IS MACEO - Jane's Addiction
-------------------------------------------------------------------------------

Tuning: EADGBe

                                Riff A (Repeat 2x)
e|---------------------------------------------------------------------------|
B|---------------------------------------------------------------------------|
G|---7---5-------------------------------------7-7---8----7--8-8-10-10-------|
D|-x-8---6----7/8-7----------------------------8-8-x-8----8--8-8-8--8--------|
A|------------------8--------------------------------------------------------|
E|---------------------------------------------------------------------------|
	
e|---------------------------------------------------------------------------|
B|---------------------------------------------------------------------------|
G|---7---5-------------------------------------7-7---8----7--8-8-10-10-------|
D|-x-8---6----6h8------------------------------8-8-x-8----8--8-8-8--8--------|
A|------------------6--------------------------------------------------------|
E|---------------------------------------------------------------------------|



                             Riff B (Play once)
e|---------------------------------------------------------------------------|
B|---------------------------------------------------------------------------|
G|---7---5-------------------------------------7-7---8----7--8-8-10-10-------|
D|-x-8---6----7/8-7----------------------------8-8-x-8----8--8-8-8--8--------|
A|------------------8--------------------------------------------------------|
E|---------------------------------------------------------------------------|
                                              
e|-------------------------|                                               
B|-------------------------|						  
G|---7---5-----------------|
D|-x-8---6----6h8----------|
A|------------------6------|
E|-------------------------|



                                    Riff C (Repeat 2x)
e|---------------------------------------------------------------------------|
B|---------------------------------------------------------------------------|
G|-7-7-7-7-7-7-7-7-7-7--7-7-7-7-7-7-7-7-7-7--7-7-7-7-7-7-7-7-7-7---7/8-7-----|
D|-8-8-8-8-8-8-8-8-8-8--8-8-8-8-8-8-8-8-8-8--8-8-8-8-8-8-8-8-8-8-x-7/8-8-7---|
A|-----------------------------------------------------------------------7---|
E|---------------------------------------------------------------------------|

					


| /  slide up
| \  slide down
| h  hammer-on
| p  pull-off
| ~  vibrato
| +  harmonic
| x  Mute note
===============================================================================
            
Submit corrections

comments powered by Disqus
↑ Back to top | Janes Addiction Tabs for My Cat's Name Is Maceo. Lyrics for acoustic guitar and electric guitar. Tablatures and chords are parodies/interpretations of the original songs. You may use it for private study, scholarship, research or language learning purposes only