» » »

Janes Addiction, Idiot's Rule Tabs (ver.1)

Artists:  A B C D E F G H I J K L M N O P Q R S T U V W X Y Z # 

Idiot's Rule Tabs (ver.1)

Janes Addiction Tabs
Rating:
0/5 (0 votes)
Idiot's Rule lessons Tabs too difficult? Try these video lessons and learn fast
                Tuning: Standard (EADGBe)

Intro:


e-|----)-------------------------------|-------------------------------------------------|
B-|--10)-------------------------------|-------------------------------------------------|
G-|--10--------------------------------|-------------------------------------------------|
D-|-------------12~~~----12p10----10\--|--9~~--------10p9-------)????????----------------|
A-|----------------------------12------|-------------------10--8-------------------------|
E-|------------------------------------|-------------------------------------------------|
                                                               Slow bend

e-|-------------------------------------------|----)-----------------------------------|
B-|--------------------------------------x-x--|--10)--x-x--12----x-13)-----------------|
G-|--------------------------------------x-x--|--10---x-x--12----x-12------------------|
D-|---)----------------------------------x-x--|----------------------------------------|
A-|--8----x-x--8--x-x--8----10p8-10p8---------|----------------------------------------|
E-|-------------------------------------------|----------------------------------------|

                                                              )                  )
e-|------------------------------------------------------|--15-----------------15------------------|
B-|--------13----13----13-13-13-13-13-13-13-13-13-13-13--|-----------------------------------------|
G-|--12/14----14----14----14-14-14-14-14-14-14-14-14-14--|-----------------------------------------|
D-|------------------------------------------------------|-----------------------------------------|
A-|------------------------------------------------------|-----------------------------------------|
E-|------------------------------------------------------|-----------------------------------------|

                                                                                         
Trill
e-|--13p12p10-13p12p10-----------------------------------------|----)---------------------------------|
B-|--------------------13p12p10----------)---------------------|--10)--x-x--12------------------------|
G-|-----------------------------12p10--12---12p10-12p10----10--|--10---x-x--12----10------------------|
D-|-----------------------------------------------------12-----|----------------------12--10h12--10---|
A-|------------------------------------------------------------|--------------------------------------|
E-|------------------------------------------------------------|--------------------------------------|

Riff 1: w/ Wah-Wah

     :18
e-|--------------------------------|---------------------------------------|
B-|------------------13)-13)~~~----|---------------------------------------|
G-|------------------12--12--------|--10----------------12-----------------|
D-|--------------------------------|--10----------------12-----------------|
A-|--------------------------------|---8----------------10-----------------|
E-|--------------------------------|---------------------------------------|

Variation:

    1:30
e-|--------------------------------|---------------------------------------|
B-|------------------13)-13)~~~----|---------------------------------------|
G-|------------------12--12--------|--10-----------/14--12-----------------|
D-|--------------------------------|--10-------------x---x-----------------|
A-|--------------------------------|---8-----------/12--10-----------------|
E-|--------------------------------|---------------------------------------|

Riff 2:

     1:42                                                                 (x4)
e-|---------------------------------------|------------------------------------|
B-|---------------------------------------|------------------------------------|
G-|--7--------7----------------x--7----7--|--5----------------x--4----5----6---|
D-|--7--------7----------------x--7----7--|--5----------------x--4----5----6---|
A-|--5--------5----------------x--5----5--|--3----------------x--2----3----4---|
E-|---------------------------------------|------------------------------------|

     1:59                                                                 (x2)
e-|-------------------------------------|--------------------------------------|
B-|-------------------------------------|--------------------------------------|
G-|--7----------------------------------|--5-----------------------------------|
D-|--7----------------------------------|--5-----------------------------------|
A-|--5----------------------------------|--3-----------------------------------|
E-|-------------------------------------|--------------------------------------|

Bass Riff 1:


G-|-----------7----5------------------|----------------------------------|
D-|-------------------7----3--5h3-----|-----------3----------5-------5---|
A-|--5-----------------------------5--|----------------------------------|
E-|-----------------------------------|--1-------------1--3-------3------|

Variation:


G-|-----------7---5-------------------|----------------------------------|
D-|------------------7-----3--5----3--|-----------3----------5-------5---|
A-|--5--------------------------------|----------------------------------|
E-|-----------------------------------|--1-------------1--3-------3------|
            

comments powered by Disqus
↑ Back to top | Janes Addiction Tabs for Idiot's Rule. Lyrics for acoustic guitar and electric guitar. Tablatures and chords are parodies/interpretations of the original songs. You may use it for private study, scholarship, research or language learning purposes only