» » »

Janes Addiction, Everbodys Friend Tabs (ver.1)

Artists:  A B C D E F G H I J K L M N O P Q R S T U V W X Y Z # 

Everbodys Friend Tabs (ver.1)

Janes Addiction Tabs
 Rating:
4/5 (4 votes)
Everbodys Friend lessons Tabs too difficult? Try these video lessons and learn fast
1
                Solo (light Distortion)

e:------------------------------------------------------------------8-7-5-10
B:---------------------------------------------------------8-10--10---------
G:------------------------------------------------------7-9----9------------
D:11-p9-p7-h11---7-9-10-12-14-9-----10-12-14-9-9-7-9/7/5--------------------
A:--------------------------------------------------------------------------
E:--------------------------------------------------------------------------

Solo (cont.)

e:-------------------------------
B:-8-10--------------------------
G:-----9-12-7-9-7-h9p7----4-h5-p4
D:-------------------------------
A:-------------------------------
E:-------------------------------
            
Submit corrections

comments powered by Disqus
↑ Back to top | Janes Addiction Tabs for Everbodys Friend. Lyrics for acoustic guitar and electric guitar. 1 Tablatures and chords are parodies/interpretations of the original songs. You may use it for private study, scholarship, research or language learning purposes only