» » »

Jamisonparker, Best Mistake Tabs (ver.1)

Artists:  A B C D E F G H I J K L M N O P Q R S T U V W X Y Z # 

Best Mistake Tabs (ver.1)

Jamisonparker Tabs
Rating:
1/5 (5 votes)
Best Mistake lessons Tabs too difficult? Try these video lessons and learn fast
                
 ____________
|            |
| GUITAR ONE |
|____________|

This is the main riff throughout the whole song:
e|--10------9------9------9-------10----10-----|
B|-----10-----10-----10-----10-------10----10--|
G|--------7------7------7------7---------------|
D|---------------------------------------------|
A|---------------------------------------------|
E|---------------------------------------------|

Verse 2:
e|--10-10------------------------|
B|---7--7--7~--7h8p7~--555575----|
G|----------------------------7--|
D|-------------------------------|
A|-------------------------------|
E|-------------------------------|

e|--5-5-----------------------|
B|--7-7--7~--7h8p7~--5555777--|
G|----------------------------|
D|----------------------------|
A|----------------------------|
E|----------------------------|

e|--5-5-----------------------|
B|--7-7--7~--7h8p7~--555575---|
G|--------------------------7-|
D|----------------------------|
A|----------------------------|
E|----------------------------|

e|--10-10-----------------------|
B|---7--7--7~--7h8p7~--5555777--|
G|------------------------------|
D|------------------------------|
A|------------------------------|
E|------------------------------|


e|--5-5-------------------|
B|--7-7--7~--88--555575---|
G|----------------------7-|
D|------------------------|
A|------------------------|
E|------------------------|

Then back to the main riff.

Bridge:
e|--------17~----15-14------|
B|--14-15--------------15~--|
G|--------------------------|
D|--------------------------|  2x
A|--------------------------|
E|--------------------------|

Then back to the main riff for the rest of the song.

 ____________
|            |
| GUITAR TWO |
|____________|

Nothing for the verse.

Pre-Chorus:
e|----------------|
B|----------------|
G|----------------|
D|--5~--7--4--5~--| Play as many times as needed.
A|--5~--5--4--5~--|
E|--3~--5--2--3~--|

Chorus:
e|--------------------------------------------|
B|--------------------------------------------|
G|--7-----------------4-----------------------|
D|--7-(16x)--5--------4-(8x)--4-------5-------|
A|--5--------5-(16x)--2-------4-(8x)--5-(8x)--|
E|-----------3----------------2-------3-------|

Verse 2:
e|-----|
B|-----|
G|--7--|
D|--7--| You can figure out the rhythm.
A|--5--|
E|-----|

Chorus 2x

Bridge:
e|------|
B|------|
G|------|
D|--5~--|
A|--5~--|
E|--3~--|

Chorus

Outro:
e|------------------|
B|----------8-------|
G|--7-------7-(8x)--|
D|--7-(8x)--5-------|
A|--5---------------|
E|------------------|

that would be all. :]
            
Submit corrections

comments powered by Disqus
↑ Back to top | Jamisonparker Tabs for Best Mistake. Lyrics for acoustic guitar and electric guitar. Tablatures and chords are parodies/interpretations of the original songs. You may use it for private study, scholarship, research or language learning purposes only