» » »

Jamie T, Brand New Bass Bass tabs (ver.1)

Artists:  A B C D E F G H I J K L M N O P Q R S T U V W X Y Z # 

Brand New Bass Bass tabs (ver.1)

Jamie T Tabs
 Rating:
4.6/5 (9 votes)
Brand New Bass lessons Tabs too difficult? Try these video lessons and learn fast
1
                (Guitar)


the lyrics arent all there and arent in the exact place
but i thought it would help
 

intro:
G|-2-4-2-4-2-4-2-4-2-4-2-4--------|
D|-0-0-0-0-0-0-0-0-0-0-0-0-3-2-0--|  x4    
A|--------------------------------|
E|--------------------------------|

Well i, i went to buy myself a handgun..
G|-2--------7----5----|
D|-0--------5----3----|  X3
A|--------------------|
E|--------------------|

              But i spent all my money on this cracked out piece of sh*t..
G|-2--------7-stop---|
D|-0--------5--------|   
A|-------------------|
E|-------------------|

                          Well here we go...
G|-2-4-2-4-2-4-2-4-2-4-2-4--------|
D|-0-0-0-0-0-0-0-0-0-0-0-0-3-2-0--|  x4
A|--------------------------------|
E|--------------------------------|
  We all know what you got to do
G|-5---7-------2------|
D|-3---5---3-2-0------|
A|--------------------|
E|--------------------|

Always just comes down to you
G|-5---7---2-4-2-4-2-4-2-4-2-4-|
D|-3---5---0-0-0-0-0-0-0-0-0-0-|
A|-----------------------------|
E|-----------------------------|
We all know what you got to do man
G|-5---7-------2------|
D|-3---5---3-2-0------|
A|--------------------|
E|--------------------|

Always just comes down to you            Shut that door
G|-5---7---2-4-2-4-2-4-2-4-2-4-2------|
D|-3---5---0-0-0-0-0-0-0-0-0-0-0-stop-|
A|------------------------------------|
E|------------------------------------|
                            Spewing all over the floor..
G|-2-4-2-4-2-4-2-4-2-4-2-4-2------|
D|-0-0-0-0-0-0-0-0-0-0-0-0-0-stop-|  x2
A|--------------------------------|
E|--------------------------------|
 
G|-2-4-2-4-2-4-2-4-2-4-2-4--------|
D|-0-0-0-0-0-0-0-0-0-0-0-0-3-2-0--|  
A|--------------------------------|
E|--------------------------------|

Well i, i went drinking down the bars...
G|-2--------7----5----|
D|-0--------5----3----|  X2
A|--------------------|
E|--------------------|

                  So you better go running star
G|-2-4-2-4-2-4-2-4--7----5--|
D|-0-0-0-0-0-0-0-0--5----3--| 
A|--------------------------|
E|--------------------------|

                Cos right now im not really sure if i can drive for sh*t but
G|-2-4-2-4-2-4-2-4--7----5---------------------|
D|-0-0-0-0-0-0-0-0--5----3-keep playing longer-| 
A|---------------------------------------------|
E|---------------------------------------------|

                          well here we go...
G|-2-4-2-4-2-4-2-4-2-4-2-4--------|
D|-0-0-0-0-0-0-0-0-0-0-0-0-3-2-0--|  x4
A|--------------------------------|
E|--------------------------------|

pause
             
G|-7-5-7-5-7-5/10--7-5-7-5-7-5-4h5p4-2--|
D|-0-0-0-0-0-0-0---0-0-0-0-0-0-0-0-0-0--|  x2
A|--------------------------------------|
E|--------------------------------------|


| /  slide up
| h  hammer-on
| p  pull-off


its not 100% like the album version but its close enough

DavexxX
            
Submit corrections

comments powered by Disqus
↑ Back to top | Jamie T Bass for Brand New Bass. Lyrics for acoustic guitar and electric guitar. 1 Tablatures and chords are parodies/interpretations of the original songs. You may use it for private study, scholarship, research or language learning purposes only