» » »

Ready To Fly Tabs (ver.1)

Artists:  A B C D E F G H I J K L M N O P Q R S T U V W X Y Z # 

Ready To Fly Tabs (ver.1)

Jamie Grace
Rating:
0/5 (0 votes)

Tabs too difficult? Try these video lessons and learn fast.
                -----------------------------------------------------------------------------
                           READY TO FLY(PRELUDE)               JAMIE GRACE
-----------------------------------------------------------------------------

Acoustic Guitar:Standard Tuning


~INTRO~

e|0-------0-0-----0-------0-0-----0---0---0-0-----0---0---0-0---0-|
B|1-------1-1-----1-------1-1-----1---1---1-1-----1---1---1-1---1-|
G|0-------0-0-----0-------0-0-----2---2---2-2-----2---2---2-2---2-|
D|x-------x-x-----x-------x-x-----2---2---2-2-----2---2---2-2---2-|
A|3-------3-3-----2-------2-2-----0---0---0-0-----0---0---0-0---0-|
E|----------------------------------------------------------------|

e|0---0---0-0---0-3---3---3-3---3-0---0---0-0---0-----------------|
B|0---0---0-0---0-3---3---3-3---3-1---1---1-1---1-----------------|
G|2---2---2-2---2-4---4---4-4---4-0---0---0-0---0-----------------|
D|3---3---3-3---3-5---5---5-5---5-2---2---2-2---2-----------------|
A|3---3---3-3---3-5---5---5-5---5-3---3---3-3---3-----------2-----|
E|1---1---1-1---1-3---3---3-3---3-----------------3----5----------|


~CHORUS~

e|0-------0-0-----0-------0-0-----0---0---0-0-----0---0---0-0---0-|
B|1-------1-1-----1-------1-1-----1---1---1-1-----1---1---1-1---1-|
G|0-------0-0-----0-------0-0-----2---2---2-2-----2---2---2-2---2-|
D|x-------x-x-----x-------x-x-----2---2---2-2-----2---2---2-2---2-|
A|3-------3-3-----2-------2-2-----0---0---0-0-----0---0---0-0---0-|
E|----------------------------------------------------------------|
      There's a feather in my hair and a wing around my neck

e|0---0---0-0---0-3---3---3-3---3-0---0---0-0---0-----------------|
B|0---0---0-0---0-3---3---3-3---3-1---1---1-1---1-----------------|
G|2---2---2-2---2-4---4---4-4---4-0---0---0-0---0-----------------|
D|3---3---3-3---3-5---5---5-5---5-2---2---2-2---2-----------------|
A|3---3---3-3---3-5---5---5-5---5-3---3---3-3---3-----------2-----|
E|1---1---1-1---1-3---3---3-3---3-----------------3----5----------|
                    I'm ready to fly away

e|0-------0-0-----0-------0-0-----0---0---0-0-----0---0---0-0---0-|
B|1-------1-1-----1-------1-1-----1---1---1-1-----1---1---1-1---1-|
G|0-------0-0-----0-------0-0-----2---2---2-2-----2---2---2-2---2-|
D|x-------x-x-----x-------x-x-----2---2---2-2-----2---2---2-2---2-|
A|3-------3-3-----2-------2-2-----0---0---0-0-----0---0---0-0---0-|
E|----------------------------------------------------------------|
      There's a feather in my hair and a wing around my neck

e|0---0---0-0---0-3---3---3-3---3-0---0---0-0---0-0---0---0-0---0-|
B|0---0---0-0---0-3---3---3-3---3-1---1---1-1---1-1---1---1-1---1-|
G|2---2---2-2---2-4---4---4-4---4-0---0---0-0---0-0---0---0-0---0-|
D|3---3---3-3---3-5---5---5-5---5-2---2---2-2---2-2---2---2-2---2-|
A|3---3---3-3---3-5---5---5-5---5-3---3---3-3---3-3---3---3-3---3-|
E|1---1---1-1---1-3---3---3-3---3---------------------------------|
                    I'm ready to fly away

~BRIDGE~

e|0---0---0-0---0-0---0---0-0---0-3---3---3-3---3-3---3---3-3---3-|
B|1---1---1-1---1-1---1---1-1---1-0---0---0-0---0-0---0---0-0---0-|
G|2---2---2-2---2-2---2---2-2---2-0---0---0-0---0-0---0---0-0---0-|
D|2---2---2-2---2-2---2---2-2---2-0---0---0-0---0-0---0---0-0---0-|
A|0---0---0-0---0-0---0---0-0---0-2---2---2-2---2-2---2---2-2---2-|
E|--------------------------------3---3---3-3---3-3---3---3-3---3-|
          And I've got the wishes from all of my friends 

e|0---0---0-0---0-3---3---3-3---3-0---0---0-0---0-0---0---0-0---0-|
B|1---1---1-1---1-0---0---0-0---0-1---1---1-1---1-1---1---1-1---1-|
G|0---0---0-0---0-0---0---0-0---0-2---2---2-2---2-2---2---2-2---2-|
D|2---2---2-2---2-0---0---0-0---0-2---2---2-2---2-2---2---2-2---2-|
A|3---3---3-3---3-2---2---2-2---2-0---0---0-0---0-0---0---0-0---0-|
E|----------------3---3---3-3---3---------------------------------|
             Hugs and kisses from my mom and my dad


~OUTRO~

e|0-------0-0-----0-------0-0-----0---0---0-0-----0---0---0-0---0-|
B|1-------1-1-----1-------1-1-----1---1---1-1-----1---1---1-1---1-|
G|0-------0-0-----0-------0-0-----2---2---2-2-----2---2---2-2---2-|
D|x-------x-x-----x-------x-x-----2---2---2-2-----2---2---2-2---2-|
A|3-------3-3-----2-------2-2-----0---0---0-0-----0---0---0-0---0-|
E|----------------------------------------------------------------|
      There's a feather in my hair and a wing around my neck

e|0---0---0-0---0-3---3---3-3---3-0---0---0-0---0-----------------|0---|
B|0---0---0-0---0-3---3---3-3---3-1---1---1-1---1-----------------|1---|
G|2---2---2-2---2-4---4---4-4---4-0---0---0-0---0-----------------|0---|
D|3---3---3-3---3-5---5---5-5---5-2---2---2-2---2-----------------|2---|
A|3---3---3-3---3-5---5---5-5---5-3---3---3-3---3-----------2-----|3---|
E|1---1---1-1---1-3---3---3-3---3-----------------3----5----------|----|

=============================================================================
This song is really fun to play on the guitar alone, hope you enjoy.

Peace, Love, I'm out.
            
Tabs too difficult? Try these video lessons and learn fast.




comments powered by Disqus
↑ Back to top | Tablatures and chords are parodies/interpretations of the original songs. You may use it for private study, scholarship, research or language learning purposes only