» » »

Ready To Fly Chords (ver.1)

Artists:  A B C D E F G H I J K L M N O P Q R S T U V W X Y Z # 

Ready To Fly Chords (ver.1)

Jamie Grace
Rating:
0/5 (0 votes)

Hard to play? Try these video lessons and learn fast.
                -----------------------------------------------------------------------------
                           READY TO FLY(PRELUDE)               JAMIE GRACE
-----------------------------------------------------------------------------

Tuning:Standard

*Chords listed at end(check the Cmaj7 before playing)

~INTRO~

C Cmaj7 Am  F G C

~VERSE~

          C             Cmaj7      Am
There's a feather in my hair and a wing around my neck
    F        G    C
I'm ready to fly away
          C             Cmaj7      Am 
There's a feather in my hair and a wing around my neck 
    F        G    C
I'm ready to fly away


~BRIDGE~

    Am                       G
And I've got the wishes from all of my friends
         C              G          Am
Hugs and kisses from my mom and my dad


~OUTRO~

          C             Cmaj7      Am
There's a feather in my hair and a wing around my neck
    F        G    C     C
I'm ready to fly away


*Chords Used
  C     Cmaj7     Am      F       G
e|0-------0-------0-------1-------3-------|
B|1-------1-------1-------1-------0-------|
G|0-------0-------2-------2-------0-------|
D|x-------x-------2-------3-------0-------|
A|3-------2-------0-------3-------2-------|
E|x-------x-------x-------1-------3-------|

=============================================================================
A very fun song to play, hope you enjoy.

Peace, Love, I'm out.
            
Hard to play? Try these video lessons and learn fast. | Correct




comments powered by Disqus
↑ Back to top | Tablatures and chords are parodies/interpretations of the original songs. You may use it for private study, scholarship, research or language learning purposes only