» » »

Steamroller Tabs (ver.1)

Artists:  A B C D E F G H I J K L M N O P Q R S T U V W X Y Z # 

Steamroller Tabs (ver.1)

James Taylor
Rating:
0/5 (0 votes)

Hard to play? Try these video lessons and learn fast.
                intro
                                            [fast strums] ....let ring
e|---9-------9---8-------8---7-------7---5---7---------6--------------------|
B|-------8-----------7-----------6-------5---7---------6--------------------|
G|---------------------------------------6---7---------6--------------------|
D|-------------------------------------------6---------5--------------------|
A|-------------------------------------------7---------6--------------------|
E|--------------------------------------------------------------------------|
end intro
bar with index finger---------------------------------------------------------|leave it on here
e|----------------------------------------------------------------------------|
B|--2---2---2------------------2---2-------------------2---2---2-------2---2--|
G|--2---2---2----[repeat]--------------4---2-----------2---2---2-------2---2--|
D|--2---2---2----------------------------------4-------2---2---2-------2---2--|
A|--0---0---3h4----------------------------------------0---0---3h4-----0---0--|
E|----------------------------------------------------------------------------|

e|--------------------------------------------------------------------------|
B|--------------------------------------------------------------------------|
G|------------------------[repeat all but intro]----------------------------|
D|--------------------------------------------------------------------------|
A|---3p0--------------------------------------------------------------------|
E|---------0----------------------------------------------------------------|


im gonna get the rest soon from ma friend who knows how to play it really good :] pce
            
Hard to play? Try these video lessons and learn fast. | Correct




comments powered by Disqus
↑ Back to top | Tablatures and chords are parodies/interpretations of the original songs. You may use it for private study, scholarship, research or language learning purposes only