» » »

James Taylor, Knocking Around The Zoo Tabs (ver.1)

Artists:  A B C D E F G H I J K L M N O P Q R S T U V W X Y Z # 

Knocking Around The Zoo Tabs (ver.1)

James Taylor Tabs
Rating:
0/5 (0 votes)
Knocking Around The Zoo lessons Tabs too difficult? Try these video lessons and learn fast
                

Capo on 5th Fret

Intro:
e|-------------------------|
B|-----0-------------------|
G|-----0h1-----------------|
D|-----0-------0-----0-----|
A|---------0h2---0h2---0h2-|
E|-0-0---------------------|

Verse:
e|--------------------------------------------|----------3---2------------------|
B|o-----0------3---2-----0-------------------o|-----2----3---3-----2------------|
G|------0h1----0---2-----0h1------------------|-----0--------------0----0---0---|
D|------0----------------0-------0-----0------|-----2------0-------2-0h2-0h2-0h2|
A|o--------------0-----------0h2---0h2---0h2-o|-0-0----3-------0-0--------------|
E|--0-0------3-------0-0----------------------|---------------------------------|

e|------------------------------------------|-----------------------------|
B|-----0------3---2-----0-------------------|-----3------3------2------2--|
G|-----0h1----0---2-----0h1-----------------|-----2------2------0------0--|
D|-----0----------------0-------0-----0-----|-----1------1------2------2--|
A|--------------0-----------0h2---0h2---0h2-|-2-2----2-2----0-0----0-0----|
E|-0-0------3-------0-0---------------------|-----------------------------|

e|---------------------------------------------|
B|-----0------------------------0-----3----3---|
G|-----0h1----------------------0h1---2----2---|
D|-----0-------0-----0----------0-----1----1---|
A|---------0h2---0h2---0h2----------2----2-----|
E|-0-0----------------------0-0----------------|

       E7
Just a-knockin’ around that zoo, on a Thursday afternoon
There’s bars on all the windows, and they’re countin’ up the spoons, babe
       A7
And if I’m feelin’ edgy
                             E7
There’s a chick who’s paid to be my slave, yeah, watch out James
           B7(#9)                      A7                             E7   (B7#9)
But she’ll hit me with a needle if she thinks I’m tryin to misbehave, yeah

Now the keeper’s tryin’ to cool me, says I’m bound to be alright
But I know that he can’t fool me, cause I’m puttin’ him up tight, yeah
And I can feel him gettin’ edgy
Every time I make a sudden move, oh whoa, yes it’s true
And I can hear him celebratin’ every time I up and leave the room

Solo:
E|------4---2---0----------4---2--0---|--------------|
B|o-----5---3---0----------5---3--0--o|-----3---3--3-|
G|------4---2---1-------2/4---2--1----|-----2---2--2-|
D|------------------------------------|-----1---1--1-|
A|o----------------------------------o|-2-2----2--2--|
E|--0-0---0---0-----0-0---------------|--------------|

Now my friends all come to see me, they point at me and stare
Say he’s just like the rest of us, so what’s he doin’ there?
Now they hide in their movies, girl
Pick and choose, sleep in tight, what’s the bright light shinnin’
And I’m certain bout one thing, babe that zoo’s no place to spend the night, no

Just a-knockin’ around that zoo, on a Thursday afternoon
There’s bars on all the windows, and they’re countin’ up the spoons, babe
And if I’m feelin’ edgy
There’s a chick who’s paid to be my slave, yeah, watch out Kootch
But she'll hit me with a needle if she thinks I'm tryin to misbehave, yeah

End on B7(#9)
            

comments powered by Disqus
↑ Back to top | James Taylor Tabs for Knocking Around The Zoo. Lyrics for acoustic guitar and electric guitar. Tablatures and chords are parodies/interpretations of the original songs. You may use it for private study, scholarship, research or language learning purposes only