» » »

James Dean Bradfield, See A Friend In Tears Tabs (ver.2)

Artists:  A B C D E F G H I J K L M N O P Q R S T U V W X Y Z # 

See A Friend In Tears Tabs (ver.2)

James Dean Bradfield Tabs
 Rating:
4/5 (4 votes)
See A Friend In Tears lessons Tabs too difficult? Try these video lessons and learn fast
                INTRO:
            G6                       Em7
e|--------------------------------------------------------|
B|----------0--------0-------------7--8--------7--8-------|
 G|-------2---------2-------------------------------------|
D|----0----------0-----------9------------9---------------|
A|------------------------7-------------7-----------------|
E|-3----------3-------------------------------------------|
   So men are still at war in this land
                      C         C/B
e|-------------------------------------------------------|
B|---------0----------0----------1----------1------------|
G|------2----------2---------------0-----0-----0---------|
D|---0----------0-----------2----------------------------|
A|-----------------------3-----------2-------------------|
E|-3---------3-------------------------------------------|
   For certain songs   and certain days

    Am                        D                    Am          D
e|------------------------------0-h-2--------0-h-2---------------2---3----|
B|------0-h-1------0-h-1--------------------------------1---------3---3---|
G|--------------------------2------------2-----------2----2---2---------2-|
D|----2---------2--------0------------0------------2--------0-------------|
A|--0---------0----------------------------------0------------------------|
E|------------------------------------------------------------------------|
The tender gave way to the firebrand  And Europe gave way to the States


G                           Em7
So now that money's all but scentless
F                         C   C/B
Noses and consciences are clear
Am                           D
The pointless flowers can be dispensed with
D
To see a friend in tears
           G6                           Em6
e|----------------------------------------------------------|
B|-----------0---------0------------------------------------|
G|--------2--------2-----------------0-----------0----------|
D|-----0--------0----------------4------------4-------------|
A|--------------------------2--------------2----------------|
E---3--------3-----------0--------------0-------------------|
   So our defeats are just reninders

G                             C  C/B
Of death that waits behind it all
Am                        D
The body wilts before the mind does
Am                           D
Surprised to see how soon it falls
            
Submit corrections

comments powered by Disqus
↑ Back to top | James Dean Bradfield Tabs for See A Friend In Tears. Lyrics for acoustic guitar and electric guitar. Tablatures and chords are parodies/interpretations of the original songs. You may use it for private study, scholarship, research or language learning purposes only