» » »

An English Gentleman Chords (ver.2)

Artists:  A B C D E F G H I J K L M N O P Q R S T U V W X Y Z # 

An English Gentleman Chords (ver.2)

James Dean Bradfield
Rating:
0/5 (0 votes)

Hard to play? Try these video lessons and learn fast.
                I've had a go at tabbing out the lead bit but it's not 100% accurate, close to
what he plays though

:)


Bm                G
An officer and an english gentleman
D                 A
Driving west to see who we are
Bm
No Kashmir coats
                   G
Just flowers and a smiling face
                 D
Well this is our home
                A
Perhaps we're the same

G
Walking down the street again
E
With the sleeping bags under our arms
A				F#
And it feels like we're never going home

Bm             			G
But you gave us more than we need my friend
	D
And we're so happy
		A
To be be at the door of an English gentleman  Bm, G, E A


Yeah, an English gentleman Bm, G, E A

...


What mischief makes
Is confusion in a dreary man
But thats not your fault
You just understand That there are no lies
It's just the way we feel today
Well this is our home
perhaps we're the same

Now we're walking down the street again
With the sleeping bags and our friends
And it feels like we're never going home
But you gave us more than we needed friend
We were so happy
To be at the door of an English gentleman
Yeah, an English gentleman

e--------------------------------------------------|
b---12p10---14p10---15p10---14p10---12p10---12p10--|
g-0-------0-------0-------0-------0-------0--------|
d--------------------------------------------------|
a--------------------------------------------------|
e--------------------------------------------------|

e--------------------------------------------------|
b--------------------------------------------------|
g--------------------------------------------------|
d--------------------------------------------------|
a---12p11---14p11---12p11---14p11---12p11---9\7----|
e-0-------0-------0-------0-------0-------0--------|

e--------------------------------------------------|
b--------------------------------------------------|
g--------------------------------------------------|
d---12-12---11-11---9-9---7-7----------------------|
a-0-------0-------0-----0-----0--------------------|
e--------------------------------------------------|


e-------------------0h2p0--------------------------|
b--------0-0h2p0-----------2-3---------------------|
g------3---------3---------------------------------|
d--1/4---------------------------------------------|
a--------------------------------------------------|
e--------------------------------------------------|


But you gave us more than we needed friend
We were so happy
To be at the door of an English gentleman
An English gentleman
Yeah, an English gentleman
            
Hard to play? Try these video lessons and learn fast. | Correct




comments powered by Disqus
↑ Back to top | Tablatures and chords are parodies/interpretations of the original songs. You may use it for private study, scholarship, research or language learning purposes only