» » »

James Brown, Tower Of Power Bass tabs (ver.1)

Artists:  A B C D E F G H I J K L M N O P Q R S T U V W X Y Z # 

Tower Of Power Bass tabs (ver.1)

James Brown Tabs
 Rating:
4.2/5 (5 votes)
Tower Of Power lessons Tabs too difficult? Try these video lessons and learn fast
                
HARD TAB HARD TO PLAY TO
SO PLEASE RATE THANKS
AND HAVE FUN PLAYING

verse

G|-5-3-----5—3-----5—3---------|-------3-5--------------------|
D|-----5-3-----5-3-----5-3-5-5-|-----5-----2-3-3-4-5-5--------|
A|-----------------------------|-3-3-------------------1-3----|
E|-----------------------------|------------------------------|


G|-----3-5---3----------3—5------------------------3-5-3-5----------8-10-|
D|---5-----5---5------5-----2-3-3-4-5-5----------5---------5-3-3-10------|
A|-3--------------3-3-------------------1-3--3-3-------------------------|
E|-----------------------------------------------------------------------|


G|--------------------3-5-5-----------------5-3------5-5----|
D|-3-3--------------5-------3-4-5--5-3-4-5-------5—3--------|
A|-----0-1-1-2-3--3-----------------------------------------|
E|----------------------------------------------------------|


verse 2 
G|-------3-5---------------------------3-5--5-3-----------8-10--------|
D|-----5------2-2-2-3-3-3-3-4-5------5----------5-3--3-10-------3-3---|
A|-3-3--------------------------3--3--------------------------------0-|
E|--------------------------------------------------------------------|


G|--------------3-5--5-----------------5-3-----5-5----|
D|------------5--------3-4-5--3-4-5-5------5-3--------|
A|-1-1-2-3--3-----------------------------------------|
E|----------------------------------------------------|

verse 3
G|-------3-5---------------------3-5----3----------3-5--------------|
D|-----5-----------------------5------5---5------5------------------|
A|-3-3--------0-0-0-1-1-2-3--3--------------3--3--------2-2-2-3-3-5-|
E|------------------------------------------------------------------|


G|----5-5----3-5-5-3----------8-10--------------------3-5-5----------------|
D|---------5---------5-3-3-10-------3-3--------------5-------3-4-5-5-3-4-5-|
A|—3-3----------------------------------0-1-1-2-3--3-----------------------|
E|-------------------------------------------------------------------------|

G|-5-3-----5-5----|
D|-----5-3--------|
A|----------------|
E|----------------|

solo
G|-5-3--------------------------------------------------------------|
D|-----5-3-1-5--4--3-1-2-3-3----------------3-1-2-3-3----------1-3--|
A|---------------------------0-1-1-2-2-2-3-------------0-1-2-3------|
E|------------------------------------------------------------------|


G|--------------------------5-3-----5-5----|
D|-1-2-3-3-3---------3-5--------5-3--------|
A|-----------0-0-1-3-----------------------|
E|-----------------------3-----------------|
            
Submit corrections

comments powered by Disqus
↑ Back to top | James Brown Bass for Tower Of Power. Lyrics for acoustic guitar and electric guitar. Tablatures and chords are parodies/interpretations of the original songs. You may use it for private study, scholarship, research or language learning purposes only