>
 >
Tower Of Power

Tower Of Power Bass Tabs

James Brown - Tower Of Power chords, tabs, tablatures, lyrics

Guitar lessons | Add/correct | Request | Top 50 tabs Artists:  A B C D E F G H I J K L M N O P Q R S T U V W X Y Z 0-9

Tower Of Power Bass Tabs – James Brown

CD, Sheet music, Poster

Do you like Tower Of Power? Share with your friends now
Bass Tabs

HARD TAB HARD TO PLAY TO
SO PLEASE RATE THANKS
AND HAVE FUN PLAYING

verse

G|-5-3-----53-----53---------|-------3-5--------------------|
D|-----5-3-----5-3-----5-3-5-5-|-----5-----2-3-3-4-5-5--------|
A|-----------------------------|-3-3-------------------1-3----|
E|-----------------------------|------------------------------|


G|-----3-5---3----------35------------------------3-5-3-5----------8-10-|
D|---5-----5---5------5-----2-3-3-4-5-5----------5---------5-3-3-10------|
A|-3--------------3-3-------------------1-3--3-3-------------------------|
E|-----------------------------------------------------------------------|


G|--------------------3-5-5-----------------5-3------5-5----|
D|-3-3--------------5-------3-4-5--5-3-4-5-------53--------|
A|-----0-1-1-2-3--3-----------------------------------------|
E|----------------------------------------------------------|


verse 2 
G|-------3-5---------------------------3-5--5-3-----------8-10--------|
D|-----5------2-2-2-3-3-3-3-4-5------5----------5-3--3-10-------3-3---|
A|-3-3--------------------------3--3--------------------------------0-|
E|--------------------------------------------------------------------|


G|--------------3-5--5-----------------5-3-----5-5----|
D|------------5--------3-4-5--3-4-5-5------5-3--------|
A|-1-1-2-3--3-----------------------------------------|
E|----------------------------------------------------|

verse 3
G|-------3-5---------------------3-5----3----------3-5--------------|
D|-----5-----------------------5------5---5------5------------------|
A|-3-3--------0-0-0-1-1-2-3--3--------------3--3--------2-2-2-3-3-5-|
E|------------------------------------------------------------------|


G|----5-5----3-5-5-3----------8-10--------------------3-5-5----------------|
D|---------5---------5-3-3-10-------3-3--------------5-------3-4-5-5-3-4-5-|
A|3-3----------------------------------0-1-1-2-3--3-----------------------|
E|-------------------------------------------------------------------------|

G|-5-3-----5-5----|
D|-----5-3--------|
A|----------------|
E|----------------|

solo
G|-5-3--------------------------------------------------------------|
D|-----5-3-1-5--4--3-1-2-3-3----------------3-1-2-3-3----------1-3--|
A|---------------------------0-1-1-2-2-2-3-------------0-1-2-3------|
E|------------------------------------------------------------------|


G|--------------------------5-3-----5-5----|
D|-1-2-3-3-3---------3-5--------5-3--------|
A|-----------0-0-1-3-----------------------|
E|-----------------------3-----------------|





Comments


Popular James Brown tabs & chords
Cold Sweat 2 Bass Tabs
Get On The Good Foot Bass Tabs
Get Up Offa That Thing Bass Tabs
Hot Pants Bass Tabs
Hustle Bass Tabs
Papa's Got A Brand New Bag Bass Tabs
Papas Got A Brand New Bag Bass Tabs
I Got You Chords
Please Please Please Chords
The Payback Tabs


Song lyrics



↑ Back to top | Tablatures and chords are parodies/interpretations of the original songs. You may use it for private study, scholarship, research or language learning purposes only
© 2014 AZChords.com Contact us | Privacy policy | DMCA | Add/correct tabs | Request tabs | Top 50 tabs