>
 >
Billy

Billy Guitar Tabs

James Blunt - Billy chords, tabs, tablatures, lyrics

Guitar lessons | Add/correct | Request | Top 50 tabs Artists:  A B C D E F G H I J K L M N O P Q R S T U V W X Y Z 0-9

Billy Guitar Tabs – James Blunt

CD, Sheet music, Poster

Do you like Billy? Share with your friends now
ChordsChords v2Chords v3TabsTabs v2UkuleleUkulele v2
-------------------------------------------------------------------------------
-------------------------------------------------------------------------------

Intro (keyboard):
                G#m          B            F#
e|-------------|-------------------------|------------------------|
B|-------------|-------------------------|------------------------|
G|---8-6--4----|------4-6--------4-6--3--|--------------8-6--4----|
D|-6---------4-|-6--6------4---4------4--|------------6---------4-|
A|-------------|----------------------4--|------------------------|
E|-------------|----------------------2--|------------------------|

  G#m         B             F#
e|-------------------------|------------------------|
B|-------------------------|------------------------|
G|------4-6--------4-6--3--|------------------------|
D|-6--6------4---4------4--|-----------------4------|
A|----------------------4--|----------6---6---------|
E|----------------------2--|------------------------|

Verse:                        x3||
e|-4-------2------|-2-----------||-0---------|---------------|
B|-4-------4------|-2-----------||-0---------|-4------2------|
G|-4-------4------|-3-----------||-1---------|-3------3------|
D|-6-------4------|-4-----------||-2---------|-4------4------|
A|-6-------2------|-4-----------||-2---------|---------------|
E|-4--------------|-2-----------||-0---------|-2------2------|

Chorus:                                   x2|
e|-----7\-------4---4-|-----2---2-------2---|
B|-----7\-------4---4-|-----2---2-------2---|
G|-----8\-------4---4-|-----3---3-------3---|
D|-----9\-------6---6-|-----4---4-------4---|
A|-9-9------6-6-------|-4-4-------4-4-4-----|
E|-7-7------4-4-------|-2-2-------2-2-2-----|

e|-----4---4----7---7-|-----------------------------------------------|
B|-----4---4----7---7-|-----------------------------------------------|
G|-----4---4----8---8-|-11-11-11-11-13-13-13-13-13/15-15-15-15-15-15--|
D|-----6---6----9---9-|-x--x--x--x--x--x--x--x--x-----x--x--x--x--x---|
A|-6-6------9-9-------|-9--9--9--9--11-11-11-11-11/13-13-13-13-13-13--|
E|-4-4------7-7-------|-----------------------------------------------|

e|----------------|-------------------------|
B|----------------|-------------------------|
G|-13-------------|-11------11-11-----11-12-|
D|-x--------------|--x-------x--x------x--x-|
A|-11-------------|--9-------9--9------9-10-|
E|----------------|-------------------------|

Interlude:                 x2|
e|---4\------7\--|---2-2-----|
B|---4\------7\--|---2-2-----|
G|---4\------8\--|---3-3-----|
D|---6\------9\--|---4-4-----|
A|---------------|-----------|
E|---------------|-----------|

Verse
Chorus

Interlude:
e|-----4\-------7\----|-----2---2-----------|
B|-----4\-------7\----|-----2---2-----------|
G|-----4\-------8\----|-----3---3-----------|
D|-----6\-------9\----|-----4---4-----------|
A|-6-6------9-9-------|-4-4--------/6-4--2--|
E|-4-4------7-7-------|-2-2----------------2|

e|-----4\-------7\----|-----2---2-2--2-2--2-|
B|-----4\-------7\----|-----2---2-2--2-2--2-|
G|-----4\-------8\----|-----3---3-3--3-3--3-|
D|-----6\-------9\----|-----4---4-4--4-4--4-|
A|----------9-9-------|-4-4-----------------|
E|-4--------7-7-------|-2-2-----------------|

Bridge:
   E         G#m        B          F#   x3|
e|--------------------|-------------------|-0------------|-------------------|
B|--------------------|-------------------|-0------------|-4------2----------|
G|-13-(several times)-|-11----------------|-1------------|-3------3----------|
D|--x-----------------|--x----------------|-2------------|-4------4----------|
A|-11-----------------|--9----------------|-2------------|-------------------|
E|--------------------|-------------------|-0------------|-2------2----------|

Chorus

Outro:                                    x4|
e|-----4\-------7\----|-----2---2-----------|
B|-----4\-------7\----|-----2---2-----------|
G|-----4\-------8\----|-----3---3-----------|
D|-----6\-------9\----|-----4---4-----------|
A|-6-6------9-9-------|-4-4--------/6-4--2--|
E|-4-4------7-7-------|-2-2----------------2|

| /  slide up
| \  slide down
| h  hammer-on
| p  pull-off
| ~  vibrato
| +  harmonic
| x  Mute note
===============================================================================





Comments


Popular James Blunt tabs & chords
1973 5 Chords
1973 6 Chords
Goodbye My Lover 6 Chords
Shine On 2 Chords
Tears And Rain 1 Chords
Turn Me On Chords
Wisemen Tabs
Carry You Home Ukulele
High Ukulele
Wiseman Ukulele


Song lyrics



↑ Back to top | Tablatures and chords are parodies/interpretations of the original songs. You may use it for private study, scholarship, research or language learning purposes only
© 2014 AZChords.com Contact us | Privacy policy | DMCA | Add/correct tabs | Request tabs | Top 50 tabs