» » »

Annie Chords (ver.2)

Artists:  A B C D E F G H I J K L M N O P Q R S T U V W X Y Z # 

Annie Chords (ver.2)

James Blunt
Rating:
3/5 (2 votes)

Hard to play? Try these video lessons and learn fast.
                James Blunt- Annie
Capo 1st fret (relative to capo)
Standard Tuning

Intro & Verses:
       Em        G     D        C
E|-0----0--3-----3-----x--------x--|
A|---2--2-----2--2-----x--3-----3--|
D|------2--------0--0--0-----2--2--|     Play as many times as necessary.
G|------0--------0--2--2--------0--|
B|------0--------3-----3--------1--|
E|------0--------3-----2--------0--|

(note: each chord above is strummed twice; once down and once up.)

Pre-Chorus:
   Em   D                  G      C
 Down, Down, will you go down on me
|--0----0------------------3------x--|
|--2----0------------------2------3--|
|--2----0------------------0------2--|
|--0----2------------------0------0--|
|--0----3------------------3------1--|
|--0----2------------------3------0--|


Chorus:
Crescendo on C
Cause Annie you're a star
                  G
That's just not going very far
     D                            Em
And all the world will know your name
              D              C
And you'll be famous as you are
            D
Cause I'll sing for you

Repeat Verse progression, Pre-Chorus, and Chorus.

Instrumental:
(Not so sure of this part):
  Em  G  D  C
|--0--3--0--0--|
|--2--2--0--3--|    at end of instrumental add a 'D'
|--2--0--0--2--|
|--0--0--2--0--|
|--0--3--3--1--|
|--0--3--2--0--|

Then:
Chorus 2x
Verse pattern once and end on Em

**This is my first tab, so go easy. Although I'm pretty sure that it is right except for 
one part where I mentioned that I'm not so sure of. Please rate my tab and tell me how 
did, and correct me if I'm wrong! Listen to song to know when to change chords...it's not hard.
                                                            -Musical_latina
            
Hard to play? Try these video lessons and learn fast. | Correct




comments powered by Disqus
↑ Back to top | Tablatures and chords are parodies/interpretations of the original songs. You may use it for private study, scholarship, research or language learning purposes only