» » »

Saturday Kids Tabs (ver.1)

Artists:  A B C D E F G H I J K L M N O P Q R S T U V W X Y Z # 

Saturday Kids Tabs (ver.1)

Jam
Rating:
0/5 (0 votes)

Tabs too difficult? Try these video lessons and learn fast.
                -------------------------------------------------------------------------------
                             SONG NAME - Band Name
-------------------------------------------------------------------------------

Tuning:standard

ok i looked for this tab ages ago and couldnt find one,so here my vesion.
i have just marked out the strings played,timing is up to you! pm is palm mute!
enjoy

intro
e|--7-----7-----8---8--7-----------------------------------------------------|
B|--8-----8-----10--7--8-----------------------------------------------------|
G|--0-0-0-0-0-0-0-0-0--0-----------------------------------------------------|
D|---------------------------------------------------------------------------|
A|---------------------------------------------------------------------------|
E|---------------------------------------------------------------------------|
verse part 1                   part 2
e|--------------------------(-----------------------2--------------------------|
B|--------------------------)-----------------------3--let ring----------------|
G|---------------5-----7----(---9------6------2-----2--------------------------|
D|-----5--5------5-----7----)---9------6------2-----0--------------------------|
A|-----5--5------3-----5----(---7------4------0--------------------------------|
E|-----3--3-----------------)--------------------------------------------------|
         pm     pm     pm

verse part 3
e|---------------(-------------------------------------------------------2---|
B|---------------)-------------------------------------------------------3---|
G|----9------6---(--------2-----x4------4------5------9------------------2---|
D|----9------6---)---2----0-------------4------5------9----------------------|
A|----7------4---(---0------------------2------3------7-------2------3-------|
E|---------------)--------------------------------------------0------1-------|
                     pm   pm
intro 2
e|-----10-----10------12---12-10---------------------------------------------|
B|-----12-----12------13---10-12---------------------------------------------|
G|------0-0-0--0--0-0--0-0--0--0---------------------------------------------|
D|---------------------------------------------------------------------------|
A|---------------------------------------------------------------------------|
E|---------------------------------------------------------------------------|
middle picky bit
e|------7-------7-------8-------8-------------7-----8-----10-------------------|
B|----8---8---8---8---7---7---7---7-etc-------8-----8-----10-------------------|
G|--0-------0-------0-------0-----------------7-----9-----11-------------------|
D|-----------------------------------------------------------------------------|
A|-----------------------------------------------------------------------------|
E|-----------------------------------------------------------------------------|

order.
intro
verse part 1
verse part 2
verse part 1
verse part 2
intro
verse part 1
verse part 2
verse part 1
verse part 3
intro
intro 2
middle picky bit
verse part 2
verse part 1 till end


listen to strumming to get it,ive just put the chord shapes etc down!


| /  slide up
| \  slide down
| h  hammer-on
| p  pull-off
| ~  vibrato
| +  harmonic
| x  Mute note
===============================================================================
            
Tabs too difficult? Try these video lessons and learn fast.


comments powered by Disqus
↑ Back to top | Tablatures and chords are parodies/interpretations of the original songs. You may use it for private study, scholarship, research or language learning purposes only