>
 >
 >
Eaton Rifles

Eaton Rifles Bass Tabs

Jam - Eaton Rifles chords, tabs, tablatures, lyrics

Guitar lessons | Add/correct | Request | Top 50 tabs Artists:  A B C D E F G H I J K L M N O P Q R S T U V W X Y Z 0-9

Eaton Rifles Bass Tabs – Jam

CD, Sheet music, Poster

Do you like Eaton Rifles? Share with your friends now
Bass Tabs
The Jam - Eaton Rifles - Paul Weller


I know it is not exactly right, but it is how I play it live and it works well

Intro

G----------0-0-----|----------0-0-----|----------0-0-----|----------0-0-----|
D--------------2-2-|--------------2-2-|--------------2-2-|--------------2-2-| play
A--0-0-3-3---------|--0-0-3-3---------|--0-0-3-3---------|--0-0-3-3---------|  x2
E------------------|------------------|------------------|------------------|

G----------0-0-----|----------0-0-----|------------------|------------------|
D--------------2-2-|--------------2-2-|------------------|------------------| 
A--0-0-3-3---------|--0-0-3-3---------|------------------|------------------|  
E------------------|------------------|---1---1---0-1-2--|---3---3---0-1-3--|

Verse 1  (0:18)

G------------------|------------------|------------------|------------------|
D---------5--5-----|---------7--7-----|---------5--5-----|---------7--7-----| 
A---3---3------3---|---5---5------5---|---3---3------3---|---5---5------5---|  
E------------------|------------------|------------------|------------------|
    Sup up your beer..........

G------------------|------------------|------------------|------------------|
D---------5--5-----|---------7--7-----|---------5--5-----|---------7--7-----| 
A---3---3------3---|---5---5------5---|33-3---3------3---|---5---5------5---|  
E------------------|------------------|------------------|------------------|

G------------------|
D------------------|
A--------3-3-------|  
E---1--------------|

       (0:32)
G------------------|---------7-5------|------------------|------------------|
D---------5--5-----|-------------7-5--|---------5--5-----|---------7-5------| play
A---3---3------3---|---5---5----------|---3---3------3---|---5---5-----7-5--|  x2
E------------------|------------------|------------------|------------------|
    thought you were all smart......

G------------------|
D------------------|
A------3-3--3------|  
E---1--------------|

Chorus   (0:46)

G------------------|------------------|----------0-0-----|----------0-0-----|
D------------------|------------------|--------------2-2-|--------------2-2-| play
A--------3--3------|---3--2--0--------|--0-0-3-3---------|--0-0-3-3---------|  x2
E---1--------------|------------------|------------------|------------------|
  Hello, Horay.................

G------------0-----|------------0-----|
D----------------2-|----------------2-| 
A---0----3---------|---0----3---------|  
E------------------|------------------|

Verse 2   (1:01)

G------------------|------------------|------------------|---------7-5------|
D---------5--5-----|---------7-5------|---------5--5-----|-------------7-5--| play
A---3---3------3---|---5---5-----7-5--|---3---3------3---|---5---5----------|  x2
E------------------|------------------|------------------|------------------|
  Thought you were clever.....

G------------------|
D------------------|
A------3-3--3------|  
E---1--------------|

Chorus    (1:15)

G------------------|------------------|----------0-0-----|----------0-0-----|
D------------------|------------------|--------------2-2-|--------------2-2-| play
A--------3--3------|---3--2--0--------|--0-0-3-3---------|--0-0-3-3---------|  x2
E---1--------------|------------------|------------------|------------------|
   Hello, Horay........

G------------0-----|------------0-----|
D----------------2-|----------------2-| 
A---0----3---------|---0----3---------|  
E------------------|------------------|

Bridge / solo   (1:30)

G------------------|-------5-7-5------|------------------|-------5-7-5------|
D---2---2-2-2-2----|---3---------3----|---2---2-2-2-2----|---3---------3----| 
A------------------|------------------|------------------|------------------|  
E------------------|------------------|------------------|------------------|
    What a catalist you turned out to be.........

G------------------|------------------|------------------|---------------|-------------|
D------------------|------------------|------------------|---------------|-------------| 
A------------------|------------------|------------------|---------------|-------------|  
E---3--------3-----|---3--------------|---3--------------|---3---3---3-3-|-3-3-3-3-3-3-|

     (1:44)
G------------------|------------------|------------------|------------------|
D---------5--5-----|---------7--7-----|---------5--5-----|---------7--7-----| 
A---3---3------3---|---5---5------5---|---3---3------3---|---5---5------5---|  
E------------------|------------------|------------------|------------------|


G------------------|------------------|------------------|------------------|
D------------------|------------------|------------------|------------------| 
A---3--------------|---5--------------|---3--------------|---5--------------|  
E------------------|------------------|------------------|------------0-3-0-|

     (1:56)
G----------------|----------------|------------------|------------------|
D----------------|----------------|----------0-0-----|----------0-0-----|
A---0---0--------|---0---0------0-|--------------2-2-|--------------2-2-|
E-----------3----|----------0-3---|--0-0-3-3---------|--0-0-3-3---------|

     (2:02)
G------------------|-------5-7-5------|------------------|-------5-7-5------|
D---2---2-2-2-2----|---3---------3----|---2---2-2-2-2----|---3---------3----| 
A------------------|------------------|------------------|------------------|  
E------------------|------------------|------------------|------------------|
    What a catalist you turned out to be.........

G------------------|------------------|------------------|---------------|-------------|
D------------------|------------------|------------------|---------------|-------------| 
A------------------|------------------|------------------|---------------|-------------|  
E---3--------3-----|---3--------------|---3--------------|---3---3---3-3-|-3-3-3-3-3-3-|

Verse 3   (2:16)

G------------------|---------7-5------|------------------|------------------|
D---------5--5-----|-------------7-5--|---------5--5-----|---------7-5------| play
A---3---3------3---|---5---5----------|---3---3------3---|---5---5-----7-5--|  x2
E------------------|------------------|------------------|------------------|
    We came out of it.......

G------------------|
D------------------|
A------3-3--3------|  
E---1--------------|

Chorus / Play out   (2:29)

G------------------|------------------|----------0-0-----|----------0-0-----|
D------------------|------------------|--------------2-2-|--------------2-2-| play
A--------3--3------|---3--2--0--------|--0-0-3-3---------|--0-0-3-3---------|  x4
E---1--------------|------------------|------------------|------------------|
   Hello, Horay......

G----------0-0-----|----------0-0-----|----------0-0-----|----------0-0-----|
D--------------2-2-|--------------2-2-|--------------2-2-|--------------2-2-|  play
A--0-0-3-3---------|--0-0-3-3---------|--0-0-3-3---------|--0-0-3-3---------| to end
E------------------|------------------|------------------|------------------|

End   (3:19)

G----------0-0-----|----------0-0-----|-------------|
D--------------2-2-|--------------2-2-|-------------|
A--0-0-3-3---------|--0-0-3-3---------|--0----------|
E------------------|------------------|-------------|

Enjoy





Comments


Popular Jam tabs & chords
'a' Bomb In Wardour Street Bass Tabs
David Watts Bass Tabs
Mr. Clean Bass Tabs
So Sad About Us Chords
The Bitterest Pill Chords
Eton Rifles 1 Tabs
Pop Art Poem Tabs
See Saw Tabs
That's Entertainment Tabs
Tonight At Noon Ukulele


Song lyrics



↑ Back to top | Tablatures and chords are parodies/interpretations of the original songs. You may use it for private study, scholarship, research or language learning purposes only
© 2014 AZChords.com Contact us | Privacy policy | DMCA | Add/correct tabs | Request tabs | Top 50 tabs