» » »

Jal, Rangoon Main Tabs (ver.1)

Artists:  A B C D E F G H I J K L M N O P Q R S T U V W X Y Z # 

Rangoon Main Tabs (ver.1)

Jal Tabs
Rating:
4/5 (2 votes)
Rangoon Main lessons Tabs too difficult? Try these video lessons and learn fast
                Band: Jal

INTRO
[-------------------------------------------]
[------2-2-------2-2------2-2-----2-2-------]
[-4-4--4-4--4-4--4-4--4-4-4-4-4-4-4-4-------]
[-4-4--4-4--4-4--4-4--4-4-4-4-4-4-4-4-------]
[-2-2-------2-2-------x-x-----x-x-----------]
[---------------------3-3-----3-3-----------]

CHORUS
Rangoon Main, Khwaboon MAin, Hum Sabhi......
[-----------------------------x-x---------------]
[------2-2-------2-2------2-2-x-x-----2-2-------]
[-4-4--4-4--4-4--4-4--4-4-4-4-x-x-4-4-4-4-------]
[-4-4--4-4--4-4--4-4--4-4-4-4-x-x-4-4-4-4-------]
[-2-2-------2-2-------x-x-----x-x-x-x-----------]
[---------------------3-3-----x-x-3-3-----------]

Zindagi Zara tu Jhoom LAy
[--------------------------------------------------------]
[--------------------------------------------------------]
[-4~~----------------------------------------------------]
[-4~~------------------5---------------------------------]
[-2~~------------------5---------------------------------]
[----------------------3---------------------------------]
BAat Dey Saari Khushian, Bhula Day Woh Saaray Ghum
[--------------------------------------------------------]
[--------------------------------------------------------]
[--------------------------------------------------------]
[-2--------4---------5----2-------------4---------5------]
[-2--------4---------5----2-------------4---------5------]
[-0--------2---------3----0-------------2---------3------]

THEN CHORUS

The Main Power Chord Riff Goes Like:
(Strum Repeatedly The Power Chords Marked "Strum")

[----------------------------------------]
[----------------------------------------]
[-4-------4-6-7-------/9-----------------]
[-4-strum-4-6-7-strum-/9-strum-----------]
[-2-------2-4-5-------/7-----------------]
[----------------------------------------]

SOLO
[--------------------------------------------------------]
[--------------------------------------------------------]
[-4-4-/6-6-/7-7-/9-9-/11-9-7-9-7-6-7-6-4-----------------]
[--------------------------------------------------------]
[--------------------------------------------------------]
[--------------------------------------------------------]


[--------------------------------------------------------]
[--------------------------------------------------------]
[-+------------------------------------------------------]
[--5-5-----7-7-----9-9-----------------------------------]
[--5-5-----7-7-----9-9-----------------------------------]
[--3-3-----5-5-----7-7-----------------------------------]
DO THIS ALL TWICE

BRIDGE
(soft part with clean guitar and alaaps)

[--------------------------------------------------------]
[--------------------------------------------------------]
[---4----4----4----4-------------------------------------]
[--4-4--4-4--4-4--4-4------------------------------------]
[-2------------------------------------------------------]
[------3----0----2---------------------------------------]
            

comments powered by Disqus
↑ Back to top | Jal Tabs for Rangoon Main. Lyrics for acoustic guitar and electric guitar. Tablatures and chords are parodies/interpretations of the original songs. You may use it for private study, scholarship, research or language learning purposes only