» » »

Jal, Aik Din Ayay Ga Tabs (ver.1)

Artists:  A B C D E F G H I J K L M N O P Q R S T U V W X Y Z # 

Aik Din Ayay Ga Tabs (ver.1)

Jal Tabs
 Rating:
4.2/5 (5 votes)
Aik Din Ayay Ga lessons Tabs too difficult? Try these video lessons and learn fast
                JAL - AIK DIN AYAY GA
TUNING: STANDARD

I COULDN'T AGREE WITH THE OTHER VERSIONS

INTRO
[-----0-------0-------0-------0----]
[------0-------0-------0-------0---]
[---9---9----9--9---2---2---4---4--]
[--9-9------9------2-2-----4-4-----]X2
[-7---------------0-------2--------]
[---------9------------------------]

[-------------------]
[----0--0--0-0------]
[---5--5--5---------]
[--5--5--5--5-------]
[-3-----------------]
[-------------------]

VERSE
teri Aankhain.....
[-----0-------0-------0-------0----]
[------0-------0-------0-------0---]
[---9---9----9--9---2---2---4---4--]
[--9-9------9------2-2-----4-4-----]X2
[-7---------------0-------2--------]
[---------9------------------------]

Tu Jo Chahay To.....Badlay ga MAusam
[-----0-------0---------0-------0-----------------------]
[------0-------0---------0-------0------0--0--0-0-------]
[---2---2---4---4-----9---9---9---9----5--5--5----------]
[--2-2-----4-4-------9-9-----9-9------5--5--5--5--------]
[-0-------2---------7----------------3------------------]
[---------------------------9---------------------------]

CHORUS (strum
Dil Tu Rona Nahin... Khwaab Adhooray Nahin
[-x------------------x--------------------------------]
[-x------------------x--------------------------------]
[-9------------------9--------------------------------]
[-9------------------9--------------------------------]X2
[-7------------------x--------------------------------]
[-x------------------9--------------------------------]

Aik Din Ayay Ga, Tu Yuun Gayay Ga
[-0--------------0----------------------------------]
[-0--------------0----------------------------------]
[-2--------------4----------------------------------]
[-2--------------4----------------------------------]
[-0--------------2----------------------------------]
[---------------------------------------------------]

AAAAAAAAAAAAAAAAAAAAAA.. OOOOOOOOOOO
[-x----------------------x----------------------------]
[-x----------------------x----------------------------]
[-9----------------------9----------------------------]
[-9----------------------9----------------------------]
[-7----------------------x----------------------------]
[-0----------------------9----------------------------]

LEAD AFTER THE ALAAP
[---------------------------------------------------]
[---------------------------------------------------]
[---9--8--6--8--9------9--8--11--8--9---------------]
[--9-9--9--9--9--9----9-9--9---9--9--9--------------]
[-7---7--7--7--7-----7---7--7---7--7----------------]
[---------------------------------------------------]
RHYTHM PLAYS
[-x------------------x--------------------------------]
[-x------------------x--------------------------------]
[-9------------------9--------------------------------]
[-9------------------9--------------------------------]
[-7------------------x--------------------------------]
[-x------------------9--------------------------------]

DISTORTED GUITAR
[---------------------------------------------------]
[---------------------------------------------------]
[-/9-9-9999-6-6-6666-2-2-2222-4-4-4444--------------]
[-/9-9-9999-6-6-6666-2-2-2222-4-4-4444--------------]
[-/7-7-7777-4-4-4444-0-0-0000-2-2-2222--------------]
[---------------------------------------------------]

THEN CHORUS AGAIN AND END WITH INTRO.
            
Submit corrections

comments powered by Disqus
↑ Back to top | Jal Tabs for Aik Din Ayay Ga. Lyrics for acoustic guitar and electric guitar. Tablatures and chords are parodies/interpretations of the original songs. You may use it for private study, scholarship, research or language learning purposes only