» » »

Jal, Aadat Bass tabs (ver.1)

Artists:  A B C D E F G H I J K L M N O P Q R S T U V W X Y Z # 

Aadat Bass tabs (ver.1)

Jal Tabs
 Rating:
4/5 (4 votes)
Aadat lessons Tabs too difficult? Try these video lessons and learn fast
1
                Intro.....
G|---------------------|
D|---------------------|
A|---------------------|
E|---3/9---9x---12\5---|

G|-----------------------------------------------------|
D|-----------------------------------------------------|
A|-----------------------------------------------------|
E|---9--------5----------------------------------------|
(C#m)aaaaa (A2)aaaaaa

G|-----------------------------------------------------|
D|-----------------------------------------------------|
A|-----------------------------------------------------|
E|---9----------------------------------5--------------|
(C#m)na jane kub say umeeday kuch baaki(A2) hain

G|-----------------------------------------------------|
D|-----------------------------------------------------|
A|-----------------------------------------------------|
E|---9------------------------------2------------5-----|
(C#m)mujhe phir teri yaaaad kiyoon(F#m) aati ha(A2)i

G|-----------------------------------------------------|
D|-----------------------------------------------------|
A|-----------------------------------------------------|
E|---5-----------------9-------------------------------|
(A2)na jane kub sa(C#m)yyyyyyyyyyyyyyyyy

G|-----------------------------------------------------|
D|-----------------------------------------------------|
A|-----------------------------------------------------|
E|---9-9-9----------------7-7-7------------5-5-5-------|
(C#m)Phir jitna bhi tum mujhsay(B) paas thay(A) mere

G|-------------------------------------------------------------|
D|-------------------------------------------------------------|
A|-------------------------------------------------------------|
E|---9-9-9-----------------7-7-7-------5-5-5-----------7-7-7---|
(C#m)ub to aadat si hai mujk(B)o aasay J(A)ummairay mein(B)

G|-----------------------------------------------------|
D|-----------------------------------------------------|
A|-----------------------------------------------------|
E|---9-9-9----------------7-7-7------------5-5-5-------|
(C#m)zindagi say koi shikva(B)aa bhi nahi (A)hai

G|-------------------------------------------------------------|
D|-------------------------------------------------------------|
A|-------------------------------------------------------------|
E|---9-9-9-----------------7-7-7-------5-5-5-----------7-7-7---|
(C#m)ub to zinda hoon mein is nee(B)lay aasma(A)an mein (B)

After Solo 1:

G|-----------------------------------------------------|
D|-----------------------------------------------------|
A|-----------------------------------------------------|
E|---9-9-9----------------7-7-7------------5-5-5-------|
(C#m)chahat aisi hai teri(B) bharti jay(A)e

G|-----------------------------------------------------|
D|-----------------------------------------------------|
A|-----------------------------------------------------|
E|---9-9-9----------------7-7-7------------5-5-5-------|
(C#m)aahat aisi hai teri(B) mujko sata(A)ye

G|-----------------------------------------------------|
D|-----------------------------------------------------|
A|-----------------------------------------------------|
E|---9-9-9----------------7-7-7------------5-5-5-------|
(C#m)yaadein ghairi hai itni(B) dil doob jay(A)e

G|-----------------------------------------------------|
D|-----------------------------------------------------|
A|-----------------------------------------------------|
E|---9-9-9----------------7-7-7------------5-5-5-------|
(C#m)aur aankhon mein yeh ghum(B) na bun jaay(A)e

                                                   (2x)
G|-----------------------------------------------------|
D|-----------------------------------------------------|
A|-----------------------------------------------------|
E|---9-------------------------------------------------|
(C#m)a ey e ye a ye

G|-----------------------------------------------------|
D|-----------------------------------------------------|
A|-----------------------------------------------------|
E|---5----------------7--------------------------------|
(A2)oo oo o ooo o o (B2)ooooo

After Solo 2:

G|-------------------------------------------------------------|
D|-------------------------------------------------------------|
A|-------------------------------------------------------------|
E|---9-9-9-----------------7-7-7-------5-5-5-----------7-7-7---|
(C#m)ub to aadat si hai mujk(B)o aasay J(A)ummairay mein(B)

G|-----------------------------------------------------|
D|-----------------------------------------------------|
A|-----------------------------------------------------|
E|---9---------------------7------------5----------7---|
(C#m)aa e ye aa ye a (B)oo oo(A) o o o (B)oo o ooo

G|-----------------------------------------------------|
D|-----------------------------------------------------|
A|-----------------------------------------------------|
E|---9-------7---------5------------7------------------|
(C#m)aaaaaa (B)oooooo (A)aaaa  oooo (B)

G|-----------------------------------------------------|
D|-----------------------------------------------------|
A|-----------------------------------------------------|
E|--------------9--------------------------------------|
sabhi raatein (C#m)hain

G|-----------------------------------------------------|
D|-----------------------------------------------------|
A|-----------------------------------------------------|
E|---9--------------7----------------------------------|
(C#m)sabhi baatein (B)hain

G|-----------------------------------------------------|
D|-----------------------------------------------------|
A|-----------------------------------------------------|
E|---------9-------------------------------------------|
bhula do (C#m)unhain

G|-----------------------------------------------------|
D|-----------------------------------------------------|
A|-----------------------------------------------------|
E|-------------7---------------------------------------|
mita do unhain(B) 

                                                   (2x)
G|-----------------------------------------------------|
D|-----------------------------------------------------|
A|-----------------------------------------------------|
E|---9---------7----------------5--------------7-------|
(C#m)Aaaaaaa  (B)Aaaaaaaa      (A)aaaaaaa aa  (B)aa

G|-----------------------------------------------------|
D|-----------------------------------------------------|
A|-----------------------------------------------------|
E|---9---------7----------------5--------------7-------|
   (C#m)      (B)              (A)            (B)

ub to aadat si hai mujko
            
Submit corrections

comments powered by Disqus
↑ Back to top | Jal Bass for Aadat. Lyrics for acoustic guitar and electric guitar. 1 Tablatures and chords are parodies/interpretations of the original songs. You may use it for private study, scholarship, research or language learning purposes only