» » »

Jaguares, Dime Jaguar Tabs (ver.2)

Artists:  A B C D E F G H I J K L M N O P Q R S T U V W X Y Z # 

Dime Jaguar Tabs (ver.2)

Jaguares Tabs
Rating:
0/5 (0 votes)
Dime Jaguar lessons Tabs too difficult? Try these video lessons and learn fast
                

intro:
                X4                      X4
e|--------------------------------|------------|----------|
B|--------------------------------|------------|-3--------|
G|--------------------------------|------------|4---2t4t2-|
D|-----4-------4-----4-------4----|------------|----------|
A|---2---2---2-----2---2---2---2--|--------0-2-|----------|
E|-0-------3-----0-------3--------|-0--0-3-----|----------|

       X4
e|------------|-----|
B|------------|-3-3-|
G|------------|-----|
D|------------|-----|
A|--------0-2-|-----|
E|-0--0-3-----|-----|

verse;
    Em  X4            Em/G  X4
e|-------x-------|-----------x--|
B|-------x-------|-----------x--|
G|-------0-------|-----------0--|
D|-------2-------|-----------2--|
A|-------2-------|-----------2--|
E|-------0-------|-----------3--|

      (Em-Em/G)
Ocultos en la carne se quedaron mis recuerdos
En una galaxia extraña está tu sonrisa
Gm                          Cm                     
Se quedaron lejos, en una esfera bajo la tierra..

D|------------|
A|--2-1-0-----|
E|--------3-0-|

       X4
e|------------|-----|
B|------------|-3-3-|
G|------------|-----|
D|------------|-----|
A|--------0-2-|-----|
E|-0--0-3-----|-----|

           (Em-Em/G)
Los demonios siguen correteando a los ancianos
El campo sigue minado y nadie dice nada por salvar a los ciegos
Gm                       Cm
Una mujer llorando se descubre sus secretos.

D|-------------|
A|--5-3-2-1-0--|
E|-------------|

Am         F          F#m             F 
Díme Jaguar cómo llegar hasta el final.
Am         F         F#m              F 
Díme Jaguar cómo mirar en la oscuridad.

Riff#1
  Bb                                C
e|-----------------------------------------13-15-17-17/18-15-17---------|
B|---------------------------------13-15-17-----------------------------|
G|-------------------------12-14-15-------------------------------------|
D|-----------------12-14-15---------------------------------------------|
A|---------12-13-15-----------------------------------------------------|
E|-12-13-15-------------------------------------------------------------|
 
                X4                      
e|--------------------------------|
B|--------------------------------|
G|--------------------------------|
D|-----4-------4-----4-------4----|
A|---2---2---2-----2---2---2---2--|
E|-0-------3-----0-------3--------|

                (Em-Em/G)
Sigue sudando frío el terciopelo de tus sueños,
Hundidos en el olvido se perdieron tus instintos,
Gm                         Cm
Una vena se abre en el horizonte de tus días.
 
D|-------------|
A|--5-3-2-1-0--|
E|-------------|

Am         F          F#m             F 
Díme Jaguar cómo llegar hasta el final.
Am         F         F#m              F 
Díme Jaguar cómo mirar en la oscuridad.

Riff#1
  Bb                               C
e|-----------------------------------------13-15-17-17/18-15-17---------|
B|---------------------------------13-15-17-----------------------------|
G|-------------------------12-14-15-------------------------------------|
D|-----------------12-14-15---------------------------------------------|
A|---------12-13-15-----------------------------------------------------|
E|-12-13-15-------------------------------------------------------------|

  Dm                    A
Mira Jaguar mis manos ya no las puedes leer,
          Dm             Gm
Ya no hay líneas, mi límite se desdobló,
     Dm             A
Mira Jaguar cuando vuelva a no verte,
        Dm          Gm
Te esperaré en los cuernos del vacío 
       Dm  A       Dm   Gm
Y brincaré, y brincaré siempre a tu lado.

D|-------------|
A|--5-3-2-1-0--|
E|-------------|
 
Am         F          F#m             F 
Díme Jaguar cómo llegar hasta el final.
Am         F         F#m              F 
Díme Jaguar cómo mirar en la oscuridad.

Riff#1
  Bb                               C
e|-----------------------------------------13-15-17-17/18-15-17---------|
B|---------------------------------13-15-17-----------------------------|
G|-------------------------12-14-15-------------------------------------|
D|-----------------12-14-15---------------------------------------------|
A|---------12-13-15-----------------------------------------------------|
E|-12-13-15-------------------------------------------------------------|


   Hasta que se termine la rola
e|--------------------------------|
B|--------------------------------|
G|--------------------------------|
D|-----4-------4-----4-------4----|
A|---2---2---2-----2---2---2---2--|
E|-0-------3-----0-------3--------|

i'm sorry for the 2 solos
            

comments powered by Disqus
↑ Back to top | Jaguares Tabs for Dime Jaguar. Lyrics for acoustic guitar and electric guitar. Tablatures and chords are parodies/interpretations of the original songs. You may use it for private study, scholarship, research or language learning purposes only