>
 >
Clavame Mejor Los Dientes 1

Clavame Mejor Los Dientes 1 Guitar Tabs

Jaguares - Clavame Mejor Los Dientes 1 chords, tabs, tablatures, lyrics

Guitar lessons | Add/correct | Request | Top 50 tabs Artists:  A B C D E F G H I J K L M N O P Q R S T U V W X Y Z 0-9

Clavame Mejor Los Dientes 1 Guitar Tabs – Jaguares

CD, Sheet music, Poster

Do you like Clavame Mejor Los Dientes 1? Share with your friends now
Bass TabsBass Tabs v2ChordsTabsTabs v2Ukulele
Clávame Mejor Los Dientes – Jaguares
El Equilibrio de los Jaguares 1996
Tab por Diego José González


Intro

Guitarra 1
|----------------------------------------------------------------|
|----------------------------------------------------------------|
|----------------------------------------------------------------|
|----------------------------------------------------------------|
|-------5--------------------------------------------------------|
|-0-2-3---3-2-0-3-5----------------------------------------------|
|Guitarra 2
|-----------------0--------0-------0-------2----|--2-0-2-|--2----|
|-----------------1-1------1-0h1---3-3-----3----|--3-----|--3----|
|-----------------2---2----0-------0---0---2----|--2-----|--2----|
|-----------------2-----2--2-------0-----0-0----|--0-----|--0----|
|-----------------0--------3-------2------------|--------|Ultima-|
|----------------------------------3------------|--------|Vuelta-|
|Guitarra 3
|-----------------8--------8-------7-------10---|--10----|--14---|
|-----------------10-------8-------8-------10---|--10----|--15---|
|-----------------9--------9-------7-------11---|--11----|--14---|
|-----------------------------------------------|--------|-------|
|-----------------------------------------------|--------|Ultima-|
|-----------------------------------------------|--------|Vuelta-|

Versos FIG.1(Los versos después del 1er coro tienen algunas variaciones)

Guitarra 1
|----------------------------------------12----12----------|
|--------(13)----------(12)---12-10--------15----15--------|
|---------------(12)-------------------14----14----14-14---|
|----------------------------------------------------------|
|----------------------------------------------------------|
|----------------------------------------------------------|
|Guitarra 2     (Guitarra 3 solo rasguea acordes Am, C, G y D)
|-----------------------------------------0-----0----------|
|-------------------------------------------3-----3--------|
|---------------------------------------2-----2-----2-2----|
|----------------------------------------------------------|
|----------------------------------------------------------|
|-0-2-3-2-5------------------------------------------------|


Guitarra 1
|------(12)------------------------------------------------|
|-(13)------------(12)--12-15-------------8-10-10-8-10-----|
|----------(12)-------------------7-9-9-9------------------|
|----------------------------------------------------------|
|----------------------------------------------------------|
|----------------------------------------------------------|
|Guitarra 2
|----------------------------------------------------------|
|----------------------------------------------------------|
|----------------------------------------------------------|
|------------------------------------------5-7-7-5-7-------|
|---------------------------------5-7-7-7------------------|
|----------------------------------------------------------|


CORO (Los siguientes coros tienen algunos armónicos artificiales)

Guitarra 1
|-----------------------------------------------------------------------------|
|-----------------------------------------------------------------------------|
|--------9br---------9br---------9br--------9br---------9br---------9br-------|
|-7--7-7------7--7-7------7--7-7------7--7-7------7--7-7------7--7-7------7---|
|-----------------------------------------------------------------------------|
|-----------------------------------------------------------------------------|
|Guitarra 2
|-----------------------------------------------------------------------------|
|-----------------------------------------------------------------------------|
|-------------5-----------7----------------------5-----------7----------------|
|-7-----------5-----------7-----------7----------5-----------7----------------|
|-7-----------3-----------5-----------7----------3-----------5------------5\--|
|-5-----------------------------------5---------------------------------------|

SOLO 1

Guitarra 1
|--------------------------------------------------------------------------------------|
|------------10~-10-10------------------------------10b-10-8-8h10~~~~------------------|
|----7-9br-7-----------7~---7-9br-7---------7-9br-7------------------------------------|
|-----------------------------------8~-------------------------------------------------|
|--------------------------------------------------------------------------------------|
|--------------------------------------------------------------------------------------|
|Guitarra 2
|--------------------------------------------------------------------------------------|
|-------------------------------------------------------------------------8-10-10-8-10-|
|--------------------------------------------------------------7--7-9-9-9--------------|
|-8--------------------8----------------8-----------7--7-7-----7-----------------------|
|-8--------------------8----------------8-----------7--7-7-----5-----------------------|
|-6--------------------6----------------6-----------5--5-5-----------------------------|

 Guitarra 1
|--------------------------------------------------------------------------------------|
|---------------------------------------------------------10-----10-12-13-12h13p12-10--|
|-6--6-6-6--5-5-5-5h7p5--4-4-4h5p4-2-2-4br-2~----------12b---12b-----------------------|
|--------------------------------------------------------------------------------------|
|--------------------------------------------------------------------------------------|
|--------------------------------------------------------------------------------------|
|Guitarra 2
|--------------------------------------------------------------------------------------|
|--------------------------------------------------------------------------------------|
|-----------5------------4---------7---------------------------------------5-----------|
|-7---------5------------4---------7--------------------7------------------5-----------|
|-7---------3------------2---------5----------5---------7------------------3-----------|
|-5-------------------------------------0-2-3---3-2-0-3-5------------------------------|

Guitarra 1
|----------------------------------------------------------------------|
|-10-12-13-12h13p12-10----10-12-13/15~-13-15br-13-15fb-----------------|
|----------------------------------------------------------------------|
|----------------------------------------------------------------------|
|----------------------------------------------------------------------|
|----------------------------------------------------------------------|
|Guitarra 2
|----------------------------------------------------------------------|
|----------------------------------------------------------------------|
|---------------4------------------7-----------------------------------|
|---------------4------------------7-----------------------------------|
|---------------2------------------5----------------------5------------|
|---------------------------------------------------0-2-3---3-2-0-2-5--|

Versos

(Esta es la armonía en la 3ra estrofa, se puede tocar FIG 1 en su lugar)

Armonía 1
|-----------------------------------------12------/10~---10h14p10h14p10h14p10h14---|
|-10---10-13----13-12----12-10-------13--------------------------------------------|
|--------------------------------------------12------------------------------------|
|----------------------------------------------------------------------------------|
|----------------------------------------------------------------------------------|
|----------------------------------------------------------------------------------|
|Armonía 2
|----------------------------------------------------------------------------------|
|----------------------------------------------------------------------------------|
|-9----9--14----14-12----12-11-------9----14-------12------------------------------|
|----------------------------------------------------------------------------------|
|----------------------------------------------------------------------------------|
|----------------------------------------------------------------------------------|

Outro (Esto es lo que tocan las guitarras mientras el 2do Solo)

|---7-7-----7-7-----5-5-----5-5-----3-3-----3-3-----5-5-----5-5-----7-7-----7-7--------|
|---7-7-----7-7-----5-5-----5-5-----3-3-----3-3-----5-5-----5-5-----7-7-----7-7--------|
|--------7-------7-------7-------7-------7-------7-------7-------7-------7-------------|
|--------------------------------------------------------------------------------------|
|--------------------------------------------------------------------------------------|
|--------------------------------------------------------------------------------------|
|
|-1919------1919----1717----1717----1515----1515----1717----1717----1919----1919-------|
|--------------------------------------------------------------------------------------|
|-------19-------19------19------19------19------19------19------19------19------------|
|--------------------------------------------------------------------------------------|
|--------------------------------------------------------------------------------------|
|--------------------------------------------------------------------------------------|
|
|--------------------------------------------------------------------------------------|
|--------------------------------------------------------------------------------------|
|---6--7--6-----------------------6-----------7-------7---------7br--6-----------------|
|------------7--7\4------4--4-----7-----7-----9-------9-----------------7--------------|
|--------------------------------------------------------------------------------------|
|--------------------------------------------------------------------------------------|

SOLO 2 (Esta grabado en reversa pero lo transcribí como se escucha)

(2:46)
|----------------------------------------------------------------------------------|
|-----------------------------------------------------12p10h12-14-15-14-15-17-19---|
|-11------9/11\9/11\9-7-6-----6-7-9-11-9-11-9h11-----------------------------------|
|-------------------------9-7------------------------------------------------------|
|----------------------------------------------------------------------------------|
|----------------------------------------------------------------------------------|
(2:58)
|--------------------------------------------------------------------------------------|
|-------------------------------------12----------------------7-------------------7----|
|--------------------------------9-11----11\------7-9-7-9-7-9---9-9br-7-6-7-9-7-9---9b-|
|-4p2-------2-4---9-7-9--9-11-12-------------------------------------------------------|
|-----5-4-5----------------------------------------------------------------------------|
|--------------------------------------------------------------------------------------|
 (3:15)
|-/17~-15-15----14-----14------------------------------------------------------|
|------------17------17---15/17\15--15-17-15-14h15p14-10-12p10-----------------|
|------------------------------------------------------------------------------|
|------------------------------------------------------------------------------|
|------------------------------------------------------------------------------|
|------------------------------------------------------------------------------|
 (3:23)
|------------14-12--------------------------------------------|
|-/14~-12-15-------15-14-12-----------------------------------|
|---------------------------14--------------------------------|
|------------------------------16-14-12-11-7h9----------------|
|-------------------------------------------------------------|
|-------------------------------------------------------------|
 (3:30)
|---------------------------------9h12----9\----|
|------------------10/12-10h12p10------10-------|
|-/9--11-9-11-9h11------------------------------|
|-----------------------------------------------|
|-----------------------------------------------|
|-----------------------------------------------|





Comments


Popular Jaguares tabs & chords
Como Tu Chords
Hay Amores Que Matan Chords
Dejate Ver Tabs
Dime Jaguar Tabs
Dime Jaguar 1 Tabs
El Milagro Tabs
El Secreto Tabs
Fin Tabs
Hay Amores Que Matan Intro Tabs
Detras De Los Cerros Ukulele


Song lyrics



↑ Back to top | Tablatures and chords are parodies/interpretations of the original songs. You may use it for private study, scholarship, research or language learning purposes only
© 2014 AZChords.com Contact us | Privacy policy | DMCA | Add/correct tabs | Request tabs | Top 50 tabs