>
 >
Three Views Of A Secret

Three Views Of A Secret Bass Tabs

Jaco Pastorius - Three Views Of A Secret chords, tabs, tablatures, lyrics

Guitar lessons | Add/correct | Request | Top 50 tabs Artists:  A B C D E F G H I J K L M N O P Q R S T U V W X Y Z 0-9

Three Views Of A Secret Bass Tabs – Jaco Pastorius

CD, Sheet music, Poster

Do you like Three Views Of A Secret? Share with your friends now
Bass TabsChordsUkulele
3 Views of A Secret-Jaco Pastorius

Standard tuning

Start

|----------------------7---------------------------------|
|------------x-7-7---7---7---4---4-2---------4---4-2-----|
|-7--9-10-11-------5-------4---2-----0---------2---------|
|--------------------------------------5-4-3---------0---|

|---------------------------------------|
|-----------------------------------4---|
|---------4-3-2-1-1-----0-0-3-3-1-0---2-|
|-2-3-4-4-----------2-2-----------------|

|----------------------7---------------------------------|
|------------x-7-7---7---7---4---4-2---------4---4-2-----|
|-7--9-10-11-------5-------4---2-----0---------2---------|
|--------------------------------------5-4-3---------0---|

|------------------------------|
|------------------------------|
|---------4-3-2-1-1-----0-x----|
|-2-3-4-4-----------2-2-----0--|

 This is at 1:04

|----------------------------------------------|
|----------------------15----------------------|
|-11------11-x-9-11---x----11---x-10-x-9-------|
|----9-9------------9---------9----------x-7---|

                     B
|--------------------------------------------------------|
|-x-11-----------x-/11------x-11-------------------------|
|------11-----11-------x-11------11-------x-7---7-11-12--|
|---------9-9-----------------------9-8-7-----0----------|

|----------------------------<9>-----------------------------------|
|--------------19-21---------<9>-----------------------------------|
|--------------------------x-----------x-10-x-2-x-4-x-/12-x-/15----|
|-10-9-x-8-0-2-------5-6-7-------0-4-9-----------------------------|

|-------------------------------------|
|-------------------------------------|
|---------------x-16-16---------------|
|-x-12-14-15-16---------15-2-4-4-5-5--|

This is at 2:13

|-------------------------------------------------------------|
|-------------------------------------------------------------|
|---4-----2-------4----2---4-/11-2-/12-----4-/11-----2-/12----|
|-4---4-2---5-5-4---/4---5-------------5-4-------4-2----------|

This is 2:37

|------------------------------------------------------------------|
|---------15------------------15-----------------------------------|
|-11---11----11-16-16-x-11-11----11---x-10-10-9-8---8-8-8----------|
|----9------------------------------9-------------7-------x-6------|

|------------------------------------------------------------------|
|-x-11---------------------x-11------------------------------------|
|------11-----11-11-----11------11-------x-7-x-11-~12-12-----------|
|---------9-9-------9-9------------9-8-7---------------------------|

|-----------------------------------------<16>---------------------|
|------------------------19-21-22---------<16>---------------------|
|------------------------------20-------x--------------------------|
|-10-10-9-9-x-8-8-0-0-12----------0-x-7--------0-4-x-9-9-9-15-15---|

						      B
|------------------------------------------------------------------|
|------------------------------------------------------------------|
|--------------------------------------------------x-/16-----------|
|-x-14-14-16-16-x-/17-17-x-19-14-0-0-x-12-14-15-16-------15-15-----|

|------------------------------------------------------------------|
|---17-----------x-4-x-7-------------------------------------------|
|-x-18-------x-4---------x-5---7-----9-14-x-7-x-7-x-11-11----------|
|------2-x-4-----------------5---x-7-------------------------------|

|------------------------------------------------------------------|
|-------------------14-x-9-16-x-7----------------------------------|
|-12-12-13-9-9-9-12---------------12-12----------------------------|
|---------------------------------------x-5-5-x-/7-7---------------|

|---<9>------------------------------------------------------------|
|---<9>------------------------------------------------------------|
|-x-----x-x-------------11-x-----11-16-x-9-14-9-x-9----------------|
|-----------x-4-4-12-12------x-9--------------------2--------------|

|------------------------------------------------------------------|
|------------------------------------------------------------------|
|-----x-12-x-17----------2-2-2-7-----7-----7-12-x-12----12---------|
|-x-4-----------15-2-2-2---------x-7---x-6-----------12------------|

|-----------------------------------------------4------------------|
|---------------------------------------------4--------------------|
|-x-14-------------------------x-10-------5-2-----x-7--------------|
|------x-14-x-7-8-8-8-10-10-10------x-5-3-------------x-0----------|

|------------------------------------------------------------------|
|---------<8>--------------------------10---------------12---------|
|-7-----x-<8>---------------9-14----------10---------12------------|
|---x-6-------6-x-5-5-5-x-7------x-8-8-------x-10-10---------------|

|------------------4-----------------------------------------------|
|----------------4----------------------------14-------------------|
|-x-10-------5-2-----x-7-7-7-x-/13-13-13-x-12----12-x-14-14-14-----|
|------x-5-3-------------------------------------------------------|

						  B
|--------------------------<9>-------------------------------------|
|------------------------------------------------------------------|
|-x-15-------------------x-------x-2-2-2-x-7-7-x-13-0-0-2-3-3-5----|
|------10-8-8-x-10-10-10-------------------------------------------|

|---------------------7--------------------------------------------|
|-----------x-7-7---7---7---4----4-2---------4---4-2---------------|
|---9-10-11-------5-------4---/2-----0---------2-------------------|
|-0------------------------------------5-4-3---------0-x-4-4-------|

|-----------------------------<8>----------------------------------|
|-----------------------------<8>----------------------------------|
|-x-4-3-2-1-1-----x-/2-0-x-/7-------x-4---4-x-3-3-3-0-0-0----------|
|-------------2-2-----------------0-----4--------------------------|

					   B  B  B  B
|--------------------------------------9-9-10-10-10-10-------------|
|------------------------------------------------------------------|
|-7-7-7---10---x-3-3-3-x-0-0-0-x-7-7-7-7-7-----------------2-3-2---|
|-------9----9-----------------------------------------3-0-------3-|

|------------------------------------------------------------------|
|------------------------------------------------------------------|
|-7-7-6-4-x-3-3-3-x-0-0-0-x-7-7-7-4-4-4-x-3-3-3-x-0----------------|
|---------------------------------------------------0-0------------|





Comments


Popular Jaco Pastorius tabs & chords
Amerika Bass Tabs
Birdland Bass Tabs
Blackbird 1 Bass Tabs
Come On Come Over 1 Bass Tabs
Come On Come Over 2 Bass Tabs
Continuum Live Bass Tabs
Mercy Mercy Mercy Bass Tabs
Opus Pocus Bass Tabs
Portrait Of Tracy 2 Bass Tabs
The Dry Cleaner From Des Moines Bass Tabs


Song lyrics



↑ Back to top | Tablatures and chords are parodies/interpretations of the original songs. You may use it for private study, scholarship, research or language learning purposes only
© 2014 AZChords.com Contact us | Privacy policy | DMCA | Add/correct tabs | Request tabs | Top 50 tabs