>
 >
Invite

Invite Bass Tabs

Jaco Pastorius - Invite chords, tabs, tablatures, lyrics

Guitar lessons | Add/correct | Request | Top 50 tabs Artists:  A B C D E F G H I J K L M N O P Q R S T U V W X Y Z 0-9

Invite Bass Tabs – Jaco Pastorius

CD, Sheet music, Poster

Do you like Invite? Share with your friends now
Bass Tabs
Tuning : E A D G 	Time Signature: 4/4

 |               |               |               |                
|------------------0-------------------------------0-------------|
|----------4-----4-------------------------4-----4---------------|
|3---------------------------3---3-------------------------3---3-|
|----------------------------------------------------------------|

 |               |               |               |                
|------------------0-------------------------------0-------------|
|----------4-----4-------------------------4-----4---------------|
|----------------------------3-----------------------------3---3-|
|----------------------------------------------------------------|

 |               |               |               |                
|--------------------0-------------------------------0-----------|
|----------4-----4---------------------------4---4---------------|
|--------------------------3---3---------------------------3---3-|
|----------------------------------------------------------------|

 |               |               |               |                
|------------------0---------------------------------0-----------|
|----------4-----4---------------------------4---4---------------|
|--------------------------3---3-----------------------------3-3-|
|----------------------------------------------------------------|

 |               |               |               |                
|----------------------------------------------------------------|
|----------------0---------------1---------------2---------------|
|----------------------------------------------------------------|
|----------------------------------------------------------------|

 |               |               |               |                
|----------------------------------------------------------------|
|3---------3---------------------3---------3---------------------|
|--------------3-------------------------------2-----------------|
|----------------------------------------------------------------|

 |               |               |               |                
|----------------------------------------------------------------|
|------------2---2-3-----------------------2-----2---3-----------|
|1-------------------------1-------------------------------1---1-|
|----------------------------------------------------------------|

 |               |               |               |                
|----------------------------------------------------------------|
|----------2-----2---3---------------------2-----2-3-----------1-|
|--------------------------1---1-------------------------1-------|
|----------------------------------------------------------------|

 |               |               |               |                
|--------------------3---------------------2-----2-3-------------|
|----------3---------------------1-----------------------------1-|
|--------------------------------------------------------1-------|
|----------------------------------------------------------------|

 |               |               |               |                
|--------------------6---------------------2-----2-3-------------|
|----------4-------------------1---------------------------1-----|
|----------------------------------------------------------------|
|----------------------------------------------------------------|

 |               |               |               |                
|----------2-----2---3-----------------------2---2---3-----------|
|--------------------------1---1---------------------------1---1-|
|----------------------------------------------------------------|
|----------------------------------------------------------------|

 |               |               |               |                
|--------------------6-----------------------2---2---3-----------|
|----------4-------------------1---------------------------1-----|
|----------------------------------------------------------------|
|----------------------------------------------------------------|

 |               |               |               |                
|------------------------------------------------0---------------|
|----------------3---------------4-------------------------------|
|----------------------------------------------------------------|
|----------------------------------------------------------------|

 |               |               |               |                
|1---------1---------------------1---------1---------------------|
|--------------1---------------------------------0---------0-----|
|----------------------------------------------------------------|
|----------------------------------------------------------------|

 |               |               |               |                
|------------0---0-1-----------------------0-----0---1-----------|
|----------------------------------------------------------------|
|4-------------------------4-------------------------------4---4-|
|----------------------------------------------------------------|

 |               |               |               |                
|--------8---8---------6---------------------0---1---------------|
|--------------------------------2-------4-----------------------|
|----------------------------4-----------------------------------|
|--------------------------------------------------------4-------|

 |               |               |               |                
|----------------------------------------------------------------|
|----------------1---------------2-----------2---3---------------|
|4---------------------------------------------------------------|
|----------------------------------------------------------------|

 |               |               |               |                
|----------------------------------------------------------------|
|4---------4---------------------4---------4---------------------|
|--------------4-------------------------------3-----------------|
|----------------------------------------------------------------|

 |               |               |               |                
|----------------------------------------------------------------|
|----------3-----3-4-----------------------3-----3-4-------------|
|2---------------------------2---2-------------------------2---2-|
|----------------------------------------------------------------|

 |               |               |               |                
|----------------------------------------------------------------|
|----------3-----3-4-----------------------3-----3-4-------------|
|----------------------------2-------------------------------2---|
|----------------------------------------------------------------|

 |               |               |               |                
|----------------------------------------------------------------|
|--------------------------------0---------------4---------------|
|2---------------4-----------------------------------------------|
|----------------------------------------------------------------|

 |               |               |               |                
|----------------------------------------------------------------|
|2-------------------------------2---------2---------------------|
|--------------2-------------------------------1-----------------|
|----------------------------------------------------------------|

 |               |               |               |                
|----------------------------------------------------------------|
|----------1-----1-2-----------------------1-----1-2-------------|
|0---------------------------0-----------------------------0---0-|
|----------------------------------------------------------------|

 |               |               |               |                
|----------------------------------------------------------------|
|----------1-----1-2-----------------------1-----1-2-------------|
|----------------------------0-------------------------------0---|
|----------------------------------------------------------------|

 |               |               |               |                
|----------------------------------------------------------------|
|----------------------------------------------------------------|
|0---------------2---------------3-----------3---4---------------|
|----------------------------------------------------------------|

 |               |               |               |                
|----------------------------------------------------------------|
|0---------0---------------------0---------0---------------------|
|--------------0-------------------------------------------------|
|----------------------------------------------4-----------------|

 |               |               |               |                
|----------------------------------------------------------------|
|------------------0-------------------------------0-------------|
|----------4-----4-------------------------4-----4---------------|
|3---------------------------3---3---------------------------3---|

 |               |               |               |                
|--------2---2---------0-----------------------------------------|
|------------------------------------------------0---------------|
|--------------------------------1-------3---4-------------------|
|----------------------------3-----------------------------1-----|

 |               |               |               |                
|----------------------3---------2-------------------------------|
|1---------4-----------------------------------------------------|
|--------------------------------------------0-------------------|
|----------------------------------------------------------------|

 |               |               |               |                
|----------------------------------------------------------------|
|----------------------------------------------------------------|
|----------------------------------------------------------------|
|----------------------------------------------------------------|

 |               |               |               |                
|----------------------------------------------------------------|
|1---------------------------1---2---------------------------2---|
|----------------------------------------------------------------|
|----------------------------------------------------------------|

 |               |               |               |                
|--------------------------------0---------------1---------------|
|3---------------4-----------------------------------------------|
|----------------------------------------------------------------|
|----------------------------------------------------------------|

 |               |               |               |                
|------------3-------------------------------------0-------------|
|1-----------------------------------------4-----4---------------|
|--------------------------------3-------------------------3---3-|
|--------------------------3-------------------------------------|

 |               |               |               |                
|------------------0-------------------------------0-------------|
|----------4-----4-------------------------4-----4---------------|
|----------------------------3---------------------------------3-|
|----------------------------------------------------------3-----|

 |               |               |               |                
|--------2---0---------------------------------------0-----------|
|--------------------------------------------4---4---------------|
|--------------------------3---3---------------------------3---3-|
|----------------------------------------------------------------|

 |               |               |               |                
|--------------------3-------------------------------0-----------|
|----------1---------------------------------4---4---------------|
|------------------------------3---------------------------3-----|
|----------------------------------------------------------------|

 |               |               |               |                
|--------------------------------0-------------------------------|
|----------------0-------------------------------4---------4-----|
|----------------------------------------------------------------|
|----------------------------------------------------------------|

 |               |               |               |                
|----------------0---------------5---------5---4-----------------|
|3---------3-----------------------------------------------------|
|----------------------------------------------------------------|
|----------------------------------------------------------------|

 |               |               |               |                
|19--------------------------------------------------------------|
|----------------------------------------------------------------|
|----------------------------------------------------------------|
|----------------------------------------------------------------|

 |               |               |               |                
|----------------------------------------------------------------|
|----------3-------------------3-----------3---------------------|
|----------------1-------------------------------1---------------|
|----------------------------------------------------------------|

 |               |               |               |                
|----------------------------------------------------------------|
|1-------------------------------0-------------------------------|
|----------------------------------------------------------------|
|----------------------------------------------------------------|

 |               |               |               |                
|----------------------------------------------------------------|
|--------------------------------4-------------------------------|
|4---------------------------------------------------------------|
|----------------------------------------------------------------|

 |               |               |               |                
|----------------------------------------------------------------|
|--------------------------------3-------------------------------|
|2---------------------------2-----------------------------------|
|----------------------------------------------------------------|

 |               |               |               |                
|----------------------------------------------------------------|
|----------------------------------------------------------------|
|----------------------------------------------------------------|
|------------------------------------------------------------1---|

 |               |               |               |                
|----------------------------------------------------------------|
|----------------------------------------------------------------|
|--------------------------------------------------------------1-|
|----------------------------------------------------------------|

 |               |               |               |                
|----------------------------------------------------------------|
|--------------------------------------------------------------0-|
|----------------------------------------------------------------|
|----------------------------------------------------------------|

 |               |               |               |                
|------------------------------------------------------------0---|
|----------------------------------------------------------------|
|----------------------------------------------------------------|
|----------------------------------------------------------------|

 |               |               |               |                
|----------------------------------------------------------------|
|----------------------------------------------------------------|
|----------------------------------------------------------------|
|----------------------------------------------------------------|

 |               |               |               |                
|10--------------------------------------------------------------|
|------------------------------------------------------------2---|
|----------------------------------------------------------------|
|------------------------------------------------------------0---|

 |               |               |               |                
|----------------------------------------------------------------|
|----------------------------------------------------------------|
|----------------------------------------------------------------|
|----------------------------------------------------------------|

 |               |               |               |                
|----------------------------------------------------------------|
|----------------------------------------------------------------|
|----------------------------------------------------------------|
|----------------------------------------------------------------|

 |               |               |               |                
|----------------------------------------------------------------|
|----------------------------------------------------------------|
|----------------------------------------------------------------|
|----------------------------------------------------------------|

 |               |               |               |                
|----------------------------------------------------------------|
|----------------------------------------------------------------|
|----------------------------------------------------------------|
|----------------------------------------------------------------|

 |               |               |               |                
|----------------------------------------------------------------|
|----------------------------------------------------------------|
|----------------------------------------------------------------|
|----------------------------------------------------------------|

 |               |               |               |                
|----------------------------------------------------------------|
|----------------------------------------------------------------|
|----------------------------------------------------------------|
|----------------------------------------------------------------|

 |               |               |               |                
|----------------------------------------------------------------|
|----------------------------------------------------------------|
|----------------------------------------------------------------|
|----------------------------------------------------------------|

 |               |               |               |                
|----------------------------------------------------------------|
|----------------------------------------------------------------|
|----------------------------------------------------------------|
|----------------------------------------------------------------|

 |               |               |               |                
|----------------------------------------------------------------|
|----------------------------------------------------------------|
|----------------------------------------------------------------|
|----------------------------------------------------------------|

 |               |               |               |                
|----------------------------------------------------------------|
|----------------------------------------------------------------|
|----------------------------------------------------------------|
|----------------------------------------------------------------|

 |               |               |               |                
|----------------------------------------------------------------|
|----------------------------------------------------------------|
|----------------------------------------------------------------|
|----------------------------------------------------------------|

 |               |               |               |                
|----------------------------------------------------------------|
|----------------------------------------------------------------|
|----------------------------------------------------------------|
|----------------------------------------------------------------|

 |               |               |               |                
|----------------------------------------------------------------|
|----------------------------------------------------------------|
|----------------------------------------------------------------|
|----------------------------------------------------------------|

 |               |               |               |                
|----------------------------------------------------------------|
|----------------------------------------------------------------|
|----------------------------------------------------------------|
|----------------------------------------------------------------|

 |               |               |               |                
|----------------------------------------------------------------|
|----------------------------------------------------------------|
|----------------------------------------------------------------|
|----------------------------------------------------------------|

 |               |               |               |                
|----------------------------------------------------------------|
|----------------------------------------------------------------|
|----------------------------------------------------------------|
|----------------------------------------------------------------|

 |               |               |               |                
|----------------------------------------------------------------|
|----------------------------------------------------------------|
|----------------------------------------------------------------|
|----------------------------------------------------------------|

 |               |               |               |                
|----------------------------------------------------------------|
|----------------------------------------------------------------|
|----------------------------------------------------------------|
|----------------------------------------------------------------|

 |               |               |               |                
|----------------------------------------------------------------|
|----------------------------------------------------------------|
|----------------------------------------------------------------|
|----------------------------------------------------------------|

 |               |               |               |                
|----------------------------------------------------------------|
|----------------------------------------------------------------|
|----------------------------------------------------------------|
|----------------------------------------------------------------|

 |               |               |               |                
|----------------------------------------------------------------|
|----------------------------------------------------------------|
|----------------------------------------------------------------|
|----------------------------------------------------------------|

 |               |               |               |                
|----------------------------------------------------------------|
|----------------------------------------------------------------|
|----------------------------------------------------------------|
|----------------------------------------------------------------|

 |               |               |               |                
|----------------------------------------------------------------|
|----------------------------------------------------------------|
|----------------------------------------------------------------|
|----------------------------------------------------------------|

 |               |               |               |                
|----------------------------------------------------------------|
|----------------------------------------------------------------|
|----------------------------------------------------------------|
|----------------------------------------------------------------|

 |               |               |               |                
|----------------------------------------------------------------|
|----------------------------------------------------------------|
|----------------------------------------------------------------|
|----------------------------------------------------------------|

 |               |               |               |                
|----------------------------------------------------------------|
|----------------------------------------------------------------|
|----------------------------------------------------------------|
|----------------------------------------------------------------|

 |               |               |               |                
|----------------------------------------------------------------|
|----------------------------------------------------------------|
|----------------------------------------------------------------|
|----------------------------------------------------------------|

 |               |               |               |                
|------------2---------------------------------------------------|
|2---------------------------------------------------------------|
|------------0---------------------------------------------------|
|----------------------------------------------------------------|

 |               |               |               |                
|----------------------------------------------------------------|
|----------------------------------------------------------------|
|----------------------------------------------------------------|
|----------------------------------------------------------------|

 |               |               |               |                
|----------------------------------------------------------------|
|----------------------------------------------------------------|
|----------------------------------------------------------------|
|----------------------------------------------------------------|

 |               |               |               |                
|----------------------------------------------------------------|
|----------------------------------------------------------------|
|----------------------------------------------------------------|
|----------------------------------------------------------------|

 |               |               |               |                
|7---------8---------19----------14------------------------------|
|----------------------------------------------------------------|
|--------------------------------------------0-------------------|
|----------------------------------------------------------------|

 |               |               |               |                
|----------------------------------------------------------------|
|----------------------------------------------------------------|
|----------------------------------------------------------------|
|----------------------------------------------------------------|

 |               |               |               |                
|----------------------------------------------------------------|
|----------------------------------------------------------------|
|----------------------------------------------------------------|
|----------------------------------------------------------------|

 |               |               |               |                
|----------------------------------------------------------------|
|----------------------------------------------------------------|
|----------------------------------------------------------------|
|----------------------------------------------------------------|

 |               |               |               |                
|----------------------------------------------------------------|
|----------------0---------------1---------------2---------------|
|3---------------------------------------------------------------|
|----------------------------------------------------------------|

 |               |               |               |                
|----------------------------------------------------------------|
|3-----------3-------------------3-----------3-------------------|
|----------------3-------------------------------2---------------|
|----------------------------------------------------------------|

 |               |               |               |                
|--------5---5-----------3---------------------------------------|
|----------------------------------------1---2---3---------------|
|1---------------------------1---4-----------------------3-------|
|------------------------------------------------------------1---|

 |               |               |               |                
|----------------------------------------------------------------|
|------------2---2---3-----------------------2---2---3-----------|
|1-------------------------1-----1-----------------------1-------|
|----------------------------------------------------------------|

 |               |               |               |                
|--------------------------------1---------------1---------------|
|1---------------1-----------------------------------------------|
|----------------------------------------------------------------|
|----------------------------------------------------------------|

 |               |               |               |                
|----------------------------------------------------------------|
|--------------------------------4---------------4---------------|
|4---------------4-----------------------------------------------|
|----------------------------------------------------------------|

 |               |               |               |                
|--------------------------------2-----------2-------------------|
|----------------3-------------------------------3---------------|
|2---------------------------------------------------------------|
|----------------------------------------------------------------|

 |               |               |               |                
|--------------------------------2-----------2-------------------|
|----------------3-------------------------------3---------------|
|2---------------------------------------------------------------|
|----------------------------------------------------------------|

 |               |               |               |                
|----------------------------------------------------------------|
|----------------------------------------------------------------|
|3-----------------------2---------------------------------------|
|----------------------------------------------------------------|

 |               |               |               |                
|----------------------------------------------------------------|
|----------------------------------------------------------------|
|------------------------1---------------------------------------|
|1---------------------------------------------------------------|

 |               |               |               |                
|----------------------------------------------------------------|
|1---------------2---------------3-----------3---4---------------|
|----------------------------------------------------------------|
|----------------------------------------------------------------|

 |               |               |               |                
|0-----------0---------------------------------------------------|
|--------------------------------1---------------0---------------|
|----------------------------------------------------------------|
|----------------3-----------------------------------------------|

 |               |               |               |                
|------------------0-------------------------------0-------------|
|----------4-----4-------------------------4-----4---------------|
|3---------------------------3---3-------------------------3---3-|
|----------------------------------------------------------------|

 |               |               |               |                
|--------5---5---------3-----0-------------------0---------------|
|--------------------------------1-------3---4-------------------|
|------------------------------------------------------3---3---3-|
|----------------------------------------------------------------|

 |               |               |               |                
|--------5---5---------3-----0-------------------0---0-----------|
|--------------------------------1-------3---4-------------------|
|--------------------------------------------------------3-3---3-|
|----------------------------------------------------------------|

 |               |               |               |                
|--------5---5---------3-----0-------------------0---------------|
|--------------------------------1-------3---4-------------------|
|------------------------------------------------------3-----3-3-|
|----------------------------------------------------------------|

 |               |               |               |                
|----------------------------------------------------------------|
|----------------0---------------1---------------2---------------|
|----------------------------------------------------------------|
|----------------------------------------------------------------|

 |               |               |               |                
|----------------------------------------------------------------|
|3---------3---------------------3---------3---------------------|
|--------------3-------------------------------2-----------------|
|----------------------------------------------------------------|

 |               |               |               |                
|----------------------------------------------------------------|
|------------2---2-3-----------------------2-----2---3-----------|
|1-------------------------1-------------------------------1---1-|
|----------------------------------------------------------------|

 |               |               |               |                
|----------------------------------------------------------------|
|----------2-----2---3---------------------2-----2-3-----------1-|
|--------------------------1---1-------------------------1-------|
|----------------------------------------------------------------|

 |               |               |               |                
|--------------------3---------------------2-----2-3-------------|
|----------3---------------------1-----------------------------1-|
|--------------------------------------------------------1-------|
|----------------------------------------------------------------|

 |               |               |               |                
|--------------------8---------------------2-----2-3-------------|
|----------4-------------------1---------------------------1-----|
|----------------------------------------------------------------|
|----------------------------------------------------------------|

 |               |               |               |                
|----------2-----2---3-----------------------2---2---3-----------|
|--------------------------1---1---------------------------1---1-|
|----------------------------------------------------------------|
|----------------------------------------------------------------|

 |               |               |               |                
|--------------------8-----------------------2---2---3-----------|
|----------4-------------------1---------------------------1-----|
|----------------------------------------------------------------|
|----------------------------------------------------------------|

 |               |               |               |                
|------------------------------------------------0---------------|
|----------------3---------------4-------------------------------|
|----------------------------------------------------------------|
|----------------------------------------------------------------|

 |               |               |               |                
|1---------1---------------------1---------1---------------------|
|--------------1---------------------------------0---------0-----|
|----------------------------------------------------------------|
|----------------------------------------------------------------|

 |               |               |               |                
|------------0---0-1-----------------------0-----0---1-----------|
|----------------------------------------------------------------|
|4-------------------------4-------------------------------4---4-|
|----------------------------------------------------------------|

 |               |               |               |                
|--------8---8---------6---------------------0---1---------------|
|--------------------------------2-------4-----------------------|
|----------------------------4-----------------------------------|
|--------------------------------------------------------4-------|

 |               |               |               |                
|----------------------------------------------------------------|
|----------------1---------------2-----------2---3---------------|
|4---------------------------------------------------------------|
|----------------------------------------------------------------|

 |               |               |               |                
|----------------------------------------------------------------|
|4---------4---------------------4---------4---------------------|
|--------------4-------------------------------3---------------2-|
|----------------------------------------------------------------|

 |               |               |               |                
|--------4---4---------2-----------------------------------------|
|----------------------------4---0-------2---3---4---------------|
|------------------------------------------------------2---2---2-|
|----------------------------------------------------------------|

 |               |               |               |                
|--------4---4---------2-----------------------------------------|
|----------------------------4---0-------2---3---4---4-----------|
|--------------------------------------------------------2-------|
|----------------------------------------------------------------|

 |               |               |               |                
|----------------------------------------------------------------|
|--------------------------------0---------------4---------------|
|2---------------4-----------------------------------------------|
|----------------------------------------------------------------|

 |               |               |               |                
|----------------------------------------------------------------|
|2-------------------------------2---------2---------------------|
|--------------2-------------------------------1-----------------|
|----------------------------------------------------------------|

 |               |               |               |                
|----------------------------------------------------------------|
|----------1-----1-2-----------------------1-----1-2-------------|
|0---------------------------0-----------------------------0---0-|
|----------------------------------------------------------------|

 |               |               |               |                
|----------------------------------------------------------------|
|----------1-----1-2-----------------------1-----1-2-------------|
|----------------------------0-------------------------------0---|
|----------------------------------------------------------------|

 |               |               |               |                
|----------------------------------------------------------------|
|----------------------------------------------------------------|
|0-----------2-----------3-------3-----------3---4---------------|
|----------------------------------------------------------------|

 |               |               |               |                
|----------------------------------------------------------------|
|0---------0---------------------0---------2-----------3---------|
|--------------0-------------------------------------------------|
|----------------------------------------------------------------|

 |               |               |               |                
|0---------6-----6-7---------0---0---------6-----6-7-------------|
|----------------------------------------------------------0-----|
|----------------------------------------------------------------|
|----------------------------------------------------------------|

 |               |               |               |                
|----------------------------------------------------------------|
|------------------0-------------------------------0-------------|
|----------4-----4-------------------------4-----4---------1-----|
|3---------------------------3---3-------------------------------|

 |               |               |               |                
|----------0-----------3---------4-------------------------------|
|2-------------------------------------------------------------2-|
|------------------------------------------1-----1-2-------1-----|
|----------------------------------------------------------------|

 |               |               |               |                
|--------9---9---------7-----4---0-------2---3---4-------0-------|
|----------------------------------------------------------------|
|----------------------------------------------------------------|
|----------------------------------------------------------------|

 |               |               |               |                
|----------------------------------------------------------------|
|0---------------2---------------3---------------4---------------|
|----------------------------------------------------------------|
|----------------------------------------------------------------|

 |               |               |               |                
|0-----------0-------------------0-----------0-----------------7-|
|----------------0-----------------------------------------------|
|------------------------------------------------4---------------|
|----------------------------------------------------------------|

 |               |               |               |                
|----------8---------19----------14------------------------------|
|----------------------------------------------------0-----------|
|----------------------------------------------------------------|
|----------------------------------------------------------------|

 |               |               |               |                
|----------------------------------------------------------------|
|----------------------------------------------------------------|
|------------------------------------------------------0-------3-|
|--------------------------------------------3-------------------|

 |               |               |               |                
|--------------------3-------------------------------0-----------|
|----------1---------------------------------4---4---------------|
|------------------------------3---------------------------3---3-|
|----------------------------------------------------------------|

 |               |               |               |                
|--------------------3-------------------------------0-----------|
|----------1---------------------------------4---4---------------|
|------------------------------3---------------------------3-----|
|----------------------------------------------------------------|

 |               |               |               |                
|----------------------------------------------------------------|
|----------------0---------------1---------------2---------2-----|
|----------------------------------------------------------------|
|----------------------------------------------------------------|

 |               |               |               |                
|----------------------------------------------------------------|
|3---------3---------------------3---------3---------------------|
|----------------3-----------------------------2---------------1-|
|----------------------------------------------------------------|

 |               |               |               |                
|--------3---3---------1-----------------------------------------|
|----------------------------3-----------1---2---3---------------|
|--------------------------------4-----------------------4---3-1-|
|----------------------------------------------------------------|

 |               |               |               |                
|--------3---3---------1-----------------------------------------|
|----------------------------3-----------1---2---3-------3---3---|
|--------------------------------4-------------------------------|
|----------------------------------------------------------------|

 |               |               |               |                
|----------------------------------------------------------------|
|1---------------1---------------0---------------0---------------|
|----------------------------------------------------------------|
|----------------------------------------------------------------|

 |               |               |               |                
|----------------------------------------------------------------|
|--------------------------------4---------------4-----------4---|
|4---------------4-----------------------------------------------|
|----------------------------------------------------------------|

 |               |               |               |                
|----------------------------------------------------------------|
|----------------------------------------------------------------|
|2---------------------------------------------------------------|
|----------------------------------------------------------------|

 |               |               |               |                
|----------------------------------------------------------------|
|----------------------------------------------------------------|
|----------------------------------------------------------------|
|----------------------------------------------------------------|

 |               |               |               |                
|----------------------------------------------------------------|
|----------------------------------------------------------------|
|----------------------------------------------------------------|
|1---------------------------------------------------------------|

 |               |               |               |                
|----------------------------------------------------------------|
|----------------------------------------------------------------|
|1---------------------------------------------------------------|
|----------------------------------------------------------------|

 |               |               |               |                
|----------------------------------------------------------------|
|----------------------------------------------------------------|
|----------------------------------------------------------------|
|----------------------------------------------------------------|

 |               |               |               |                
|----------------------------------------------------------------|
|----------------------------------------------------------------|
|----------------------------------------------------------------|
|----------------------------------------------------------------|

 |               |               |               |                
|7---------8-----------19--------14------------------------------|
|----------------------------------------------------------------|
|----------------------------------------------------------------|
|----------------------------------------------------------------|

 |               |               |               |                
|----------------------------------------------------------------|
|----------------------------------------------------------------|
|----------------------------------------------------------------|
|----------------------------------------------------------------|

 |               |               |               |                
|----------------------------------------------------------------|
|----------------------------------------------------------------|
|----------------------------------------------------------------|
|----------------------------------------------------------------|

 |               |               |               |                
|----------------------------------------------------------------|
|----------------------------------------------------------------|
|----------------------------------------------------------------|
|----------------------------------------------------------------|

 |               |               |               |                
|----------------------------------------------------------------|
|----------------------------------------------------------------|
|----------------------------------------------------------------|
|----------------------------------------------------------------|

 |               |               |               |                
|----------------------------------------------------------------|
|----------------------------------------------------------------|
|----------------------------------------------------------------|
|----------------------------------------------------------------|

 |               |               |               |                
|----------------------------------------------------------------|
|----------------------------------------------------------------|
|----------------------------------------------------------------|
|----------------------------------------------------------------|

 |               |               |               |                
|----------------------------------------------------------------|
|----------------------------------------------------------------|
|----------------------------------------------------------------|
|----------------------------------------------------------------|

 |               |               |               |                
|----------------------------10------5---------------------------|
|------------3-------4-------------------------------------------|
|----------------------------------------------------------------|
|----------------------------------------------------------------|

 |               |               |               |                
|--------------------------3-----6---5-------------3-------------|
|----------------------------------------------------------------|
|----------------------------------------------------------------|
|----------------------------------------------------------------|

 |               |               |               |                
|----------------------------------------------------------------|
|----------------------1-----2-----3-----------------------------|
|----------------------------------------------------------------|
|----------------------------------------------------------------|

 |               |               |               |                
|----------------------------10------0-----1---------------------|
|----------------------------3-----------------------------------|
|----------------------------------------------------------------|
|----------------------------------------------------------------|

 |               |               |               |                
|--------0-----10------------------------------------------------|
|--------------3-------------------------------------------------|
|----------------------------------------------------------------|
|----------------------------------------------------------------|

 |               |               |               |                
|----------------------------------------------------------------|
|----------------------------------------------------------------|
|----------------------------------------------------------------|
|----------------------------------------------------------------|

 |               |               |               |                
|----------------------------------------------------------------|
|----------------------------------------------------------------|
|----------------------------------------------------------------|
|----------------------------------------------------------------|

 |               |               |               |                
|--------------------1-----------2---------5---------9---------1-|
|----------0-----------------------------------------------------|
|----------------------------------------------------------------|
|----------------------------------------------------------------|

 |               |               |               |                
|----------0---------9-----------0---------8---------------------|
|----------------------------------------------------4-----------|
|----------------------------------------------------------------|
|----------------------------------------------------------------|

 |               |               |               |                
|------------------------------------------------9-----------9---|
|----------------------------------------------------------------|
|----------------------------------------------------------------|
|----------------------------------------------------------------|

 |               |               |               |                
|----------------------------------------------9---------6---2---|
|--------------------------------------------------------------4-|
|----------------------------------------------------------------|
|----------------------------------------------------------------|

 |               |               |               |                
|--------------------------------9---6---2-------8---5---1-------|
|--------------------------------------------4---------------3---|
|----------------------------------------------------------------|
|----------------------------------------------------------------|

 |               |               |               |                
|7---4---0-----------3-------------------------------------------|
|------------2---0-------4---------------------------------------|
|----------------------------------------------------------------|
|----------------------------------------------------------------|

 |               |               |               |                
|--------------------------------------------4-------------------|
|----------------------------------------------------------------|
|----------------------------------------------------------------|
|----------------------------------------------------------------|

 |               |               |               |                
|----------------------------------------------------------------|
|----------------------------------------------------------------|
|----------------------------------------------------------------|
|----------------------------------------------------------------|

 |               |               |               |                
|----------------------------------------------------------------|
|----------------------------------------------------------------|
|----------------------------------------------------0-----------|
|0-----------------------------------------4---------------------|

 |               |               |               |                
|----------------------------------------------------------------|
|----------------------------------------------------------------|
|2-------------------------------1-------------------------------|
|----------------------------------------------------------------|

 |               |               |               |                
|--------------------------23------------------------------------|
|----------------------------------------------------------------|
|0---------------------------------------------------0-----------|
|----------------------------------------------------------------|

 |               |               |               |                
|----------------------------------------------------------------|
|----------------------------------------------------------------|
|----------------------------------------------------------------|
|----------------------------------------------------------------|

 |               |               |               |                
|----------------------------------------------------------------|
|----------------------------------------------------3---------2-|
|----------------------------------------------------------------|
|----------------------------------------------------------------|

 |               |               |               |                
|--------0-----------3---------7-----------10--------13--------14|
|----------------------------------------------------------------|
|----------------------------------------------------------------|
|----------------------------------------------------------------|

 |               |               |               |                
|--------2-------------------------------------------------------|
|----------------------------------------------------------------|
|----------------------------------------------------------------|
|----------------------------------------------------------------|

 |               |               |               |                
|----------------------------------------------------------------|
|----------------------------------------------------------------|
|----------------------------------------------------------------|
|----------------------------------------------------------------|

 |               |               |               |                
|21--18--15------18--15--12------16--12--6-----------------------|
|----------------------------------------------------------------|
|----------------------------------------------------------------|
|----------------------------------------------------------------|

 |               |               |               |                
|15----------12--10--8-------12--8---7---5-------10--6---0-------|
|----------------------------------------------------------------|
|----------------------------------------------------------------|
|----------------------------------------------------------------|

 |               |               |               |                
|2---0---3---5---5---7---5---7---5---7---10--15------------------|
|----------------------------------------------------------------|
|----------------------------------------------------------------|
|----------------------------------------------------------------|

 |               |               |               |                
|--------------------14------17----------------------------------|
|----------------------------------------------------------------|
|----------------------------------------------------------------|
|----------------------------------------------------------------|

 |               |               |               |                
|--------------------------------14--17------15------------------|
|----------------------------------------------------------------|
|----------------------------------------------------------------|
|----------------------------------------------------------------|

 |               |               |               |                
|19----------17--15--12--------------------------19--------------|
|----------------------------------------------------------------|
|----------------------------------------------------------------|
|----------------------------------------------------------------|

 |               |               |               |                
|----------------17--15--13------------------17------15----------|
|----------------------------------------------------------------|
|----------------------------------------------------------------|
|----------------------------------------------------------------|

 |               |               |               |                
|----------------18--------19--------12----------5---------12----|
|----------------------------------------------------------------|
|----------------------------------------------------------------|
|----------------------------------------------------------------|

 |               |               |               |                
|----19----------12--------5---------17----------10--------3-----|
|----------------------------------------------------------------|
|----------------------------------------------------------------|
|----------------------------------------------------------------|

 |               |               |               |                
|----15----------8---------1---------13----------6---------------|
|----------------------------------------------------------4-----|
|----------------------------------------------------------------|
|----------------------------------------------------------------|





Comments


Popular Jaco Pastorius tabs & chords
Birdland Bass Tabs
Blackbird Bass Tabs
Blackbird 1 Bass Tabs
Blackbird 2 Bass Tabs
Cha Cha Bass Tabs
Chicken 1 Bass Tabs
Come On Come Over 2 Bass Tabs
Continuum 1 Bass Tabs
Continuum Head Bass Tabs
Continuum Live Bass Tabs


Song lyrics



↑ Back to top | Tablatures and chords are parodies/interpretations of the original songs. You may use it for private study, scholarship, research or language learning purposes only
© 2014 AZChords.com Contact us | Privacy policy | DMCA | Add/correct tabs | Request tabs | Top 50 tabs