» » »

I Stand Alone Tabs (ver.2)

Artists:  A B C D E F G H I J K L M N O P Q R S T U V W X Y Z # 

I Stand Alone Tabs (ver.2)

Jackyl
Rating:
0/5 (0 votes)

Hard to play? Try these video lessons and learn fast.
                E |----------------------------------------------------------------------|
B |----------------------------------------------------------------------| INTRO
G |-------2----------------4--------------2----------------------2-------|
D |--4--- 2----------------4-------------2---5---4-----------2----2------|  x4
A |--4----0---0h2p0-0--2--0h2p0--0---3---2-----4----0----2---------------|
E |--2------------------------------------------------------0---------0--|

This is the intro riff, notable things in this riff is the hammer ons and pull offs.
on he first one, you pick the open string right after you pull it off. Also, the end to
riff is very confusing, I listened to it over and over and even played it in slow 
but I am still not for sure it's 100% correct. Timing is KEY in this riff.

E |-------------------------------------------------------------------|
B |-------------------------------------------------------------------|
G |---------2------4------2------------------2------4-----2-----------|
D |--4-----2------4------2------------4-----2------4-----2------------|
A |--4-----0------2------0------------4-----0------2-----0------------|
E |--2----------------------------------2-----------------------------|

                   VERSE RIFF.
E |--------------------------------------------------------------------|
B |--------------------------------------------------------------------|
G |---------2------4------2------------------2-----------4b------------|
D |--4-----2------4------2------------4-----2-----4----4b--------------|    x4
A |--4-----0------2------0------------4-----0-----4--------------------|
E |--2----------------------------------2------------2-----------------|

All you do is bend those strings at the end.

E |----------------------------------------------------------------------|
B |----------------------------------------------------------------------|
G |----------------------------------------------------------------------|
D |---2------------------------------------------------------------------|
A |---4------------------------------------------------------------------|
E |---4------------------------------------------------------------------|


E |----------------------------------------------------------------------|
B |----------------------------------------------------------------------|
G |----------------------------------------------------------------------|
D |---2---2---2---2---2---2---2---2---2----------------------------------|
A |---4---4---4---4---2---2---2---2---4----------------------------------|
E |---4---4---4---4---0---0---0---0---4----------------------------------|

E |----------------------------------------------------------------------|
B |----------------------------------------------------------------------|
G |-------2----------------4--------------2----------------------2-------|
D |--4--- 2----------------4-------------2----5---4-----------2----2-----| x2
A |--4----0---0h2p0-0--2--0h2p0--0---3---2-----4----0----2---------------|
E |--2------------------------------------------------------0---------0--|

E |--------------------------------------------------------------------|
B |--------------------------------------------------------------------|
G |---------2------4------2------------------2-----------4b------------|
D |--4-----2------4------2------------4-----2-----4----4b--------------|    x4
A |--4-----0------2------0------------4-----0-----4--------------------|
E |--2----------------------------------2------------2-----------------|

E |----------------------------------------------------------------------|
B |----------------------------------------------------------------------|
G |----------------------------------------------------------------------|
D |---2------------------------------------------------------------------|
A |---4------------------------------------------------------------------|
E |---4------------------------------------------------------------------|

E |---------------------------------------------------------------------|
B |---------------------------------------------------------------------|
G |-------2----------------4--------------2----------------------2------|
D |--4--- 2----------------4-------------2----5---4----------2----2-----|
A |--4----0---0h2p0-0--2--0h2p0--0---3---2-----4----0----2--------------|
E |--2-----------------------------------------------------0---------0--|

E |----------------------------------------------------------------------|
B |----------------------------------------------------------------------|
G |----------------------------------------------------------------------|
D |---2---2---2---2---2---2---2---2-----2--------------------------------|
A |---4---4---4---4---2---2---2---2-----4--------------------------------|
E |---4---4---4---4---0---0---0---0-----4--------------------------------|


E |----------------------------------------------------------------------|
B |----------------------------------------------------------------------|
G |-------2----------------4--------------2----------------------2-------|
D |--4--- 2----------------4-------------2----5---4----------2----2------| x2
A |--4----0---0h2p0-0--2--0h2p0--0---3---2-----4----0----2---------------|
E |--2------------------------------------------------------0---------0--|


E |-----------------------------------------------------------------------------|
B |-----------------------------------------------------------------------------|
G |-----------------------------------------------------------------------------|
D |---2-----2---2------2---4------2---4---2-----2-------------------------------|
A |---4-----2---4------2---4------2---4---2-----2-------------------------------|
E |---4-----0---4------0---2------0---2---0-----0-------------------------------|

For this part and the next part. If you want to play the simple lead part, listen for
string bend behind this rhythm. All you do is bend the G string on the 9th fret up.

E |-----------------------------------------------------------------------------|
B |-----------------------------------------------------------------------------|
G |-------------------------------------------------------------6---------------|
D |---2-----2---2------2---0------2---4---2-----2--------6----------------------|
A |---4-----2---4------2---4------2---4---2-----2--------4----------------------|
E |---4-----0---4------0---4------0---2---0-----0-------------------------------|


E |-----------------------------------------------------------------------------|
B |-----------------------------------------------------------------------------|
G |-----------------------------------------------------------------------------|
D |---2-----2---2------2---0------2---4---2-----2-------------------------------|
A |---4-----2---4------2---4------2---4---2-----2-------------------------------|
E |---4-----0---4------0---4------0---2---0-----0-------------------------------|

For the lead part, move up to the B string on the 17th fret. Bend that up.

E |-----------------------------------------------------------------------------|
B |-----------------------------------------------------------------------------|
G |-----------------------------------------------2--4--------------------------|
D |---2-----2---2------2----------------2--4------------------------------------|
A |---4-----2---4------2----------2--4------------------------------------------|
E |---4-----0---4------0----2--5------------------------------------------------|


A little notice before the solo, I am not very good at tabbing solo's, but I will at
give you a basic idea of how the solo is played. And you can figure it out from there if
like.


E |---------------------------17b---17~-------17p12-15p12-17p12-15p12--|
B |---17b---17b--17b---------------------------------------------------|
G |--------------------------------------------------------------------|
D |--------------------------------------------------------------------|
A |--------------------------------------------------------------------|
E |--------------------------------------------------------------------|

E |-17p12-15p12-17p12-15p12-17p12-15p12---------11-------9--9-------------------------|
B |--------------------------------------------------------------------12------10-10--|
G |-----------------------------------------------------------------------------------|
D |-----------------------------------------------------------------------------------|
A |-----------------------------------------------------------------------------------|
E |-----------------------------------------------------------------------------------|

E |----11------9-------11---------------11-----9--9------11-----9----6--|
B |---12-----10-----12b--------------12----10-10-----12----10---7~------|
G |---------------------------------------------------------------------|
D |---------------------------------------------------------------------|
A |---------------------------------------------------------------------|
E |---------------------------------------------------------------------|

E |---------------------------|
B |---------------------------|
G |---------------------------|
D |------16-14-16-14---16-14--|
A |---------------------------|
E |---------------------------|

Can't quite yet tab the rest of this solo out, my ear isn't that good yet.


E |----------------------------------------------------------------------|
B |----------------------------------------------------------------------|
G |----------------------------------------------------------------------|
D |---2------------------------------------------------------------------|
A |---4------------------------------------------------------------------|
E |---4------------------------------------------------------------------|

E |----------------------------------------------------------------------|
B |----------------------------------------------------------------------|
G |-------2----------------4--------------2----------------------2-------|
D |--4--- 2----------------4-------------2----5---4----------2----2------|
A |--4----0---0h2p0-0--2--0h2p0--0---3---2-----4----0----2---------------|
E |--2------------------------------------------------------0---------0--|

E |----------------------------------------------------------------------|
B |----------------------------------------------------------------------|
G |----------------------------------------------------------------------|
D |---2---2---2---2---2---2---2---2-----2---------2-----2----------------|
A |---4---4---4---4---2---2---2---2-----4---------4-----2----------------|
E |---4---4---4---4---0---0---0---0-----4---------4-----0----------------|

E |----------------------------------------------------------------------|
B |----------------------------------------------------------------------|
G |-------2----------------4--------------2----------------------2-------|
D |--4--- 2----------------4-------------2----5---4----------2----2------| x4
A |--4----0---0h2p0-0--2--0h2p0--0---3---2-----4----0----2---------------|
E |--2------------------------------------------------------0---------0--|
            
Hard to play? Try these video lessons and learn fast. | Correct




comments powered by Disqus
↑ Back to top | Tablatures and chords are parodies/interpretations of the original songs. You may use it for private study, scholarship, research or language learning purposes only