>
 >
Down On Me 1

Down On Me 1 Guitar Tabs

Jackyl - Down On Me 1 chords, tabs, tablatures, lyrics

Guitar lessons | Add/correct | Request | Top 50 tabs Artists:  A B C D E F G H I J K L M N O P Q R S T U V W X Y Z 0-9

Down On Me 1 Guitar Tabs – Jackyl

CD, Sheet music, Poster

Do you like Down On Me 1? Share with your friends now
ChordsDrum TabsTabsTabs v2Tabs v3Tabs v4Tabs v5Ukulele
INTRO(Finger Pick The INTRO)
-------------------------------------------------------------|
-------555555566666------------------------------------------|
-------555555566666------------------------------------------|
-------------------------------------------------------------|X6
-------------------------------------------------------------|
-------------------------------------------------------------|


---------------22---------------------------22---------------|
---0---0-------33-------0-------0----0------33---------------|
---2---2-------22---0---2-------2----2------22---4B-343432---|
---2---2------------0---2-------2----2-----------------------|
---0---0----------------0-------0----0-----------------------|
-----3----3------------------------3----3--------------------|


---------------22--------------------------------------------|
--0-----0------33-------0--------3---5PH---------------------|
--2-----2------22---0---2----3-4-----------------------------|
--2-----2-----------0---2------------------------------------|
--0-----0---------------0------------------------------------|
-----3------3------------------------------------------------|


SOLO
-------------------------------------------------------------|
-------------------------------------------------------------|
--------------------10-9-8-7------10-987---------------------|
--------5-3--7-55------------------------987-----------------|
---3b--------------------------------------------------------|
-------------------------------------------------------------|

-------------------------------------------------------------|
-------------------------------------------------------------|
---------------------------------------14-17-14-16-14-17-----|
--12-15-12-14-13-16-13-15-14-17-14-16------------------------|
-------------------------------------------------------------|
-------------------------------------------------------------|

-------------------------------------------------------------|
-------------------------------------------------------------|
-14-14b----19-15-17-16-17-16-15-16-17-19-19b-----17-15-14----|
---------------------------------------------------------17b-|
-------------------------------------------------------------|
-------------------------------------------------------------|

(After the solo play these cords just figure out the struming)
-------------------------------------------------------------|
-------------------------------------------------------------|
---44444-66666-77777-666--------44444-66666-77777-77777------|
---44444-66666-77777-666--------44444-66666-77777-77777------|
---22222-44444-55555-444--454---22222-44444-55555-55555------|
---------------------------------------------------------3b--|


Then its the main riff for the rest of the song until jesse sings by himself then you 
mute an A and then go to a D,then its the outro which is the same as the intro.
                        Tabed BY:MayerGibson06





Comments


Popular Jackyl tabs & chords
Down On Me Chords
Secret Of The Bottle Chords
Down On Me 3 Tabs
Favorite Sin Intro Tabs
Lumberjack 2 Tabs
Push Comes To Shove Tabs
Redneck Punk Tabs
She Loves My Cock Tabs
She Loves My Cock Intro Tabs
Secret Of The Bottle Ukulele


Song lyrics



↑ Back to top | Tablatures and chords are parodies/interpretations of the original songs. You may use it for private study, scholarship, research or language learning purposes only
© 2014 AZChords.com Contact us | Privacy policy | DMCA | Add/correct tabs | Request tabs | Top 50 tabs