» » »

Dirty Diana Tabs (ver.1)

Artists:  A B C D E F G H I J K L M N O P Q R S T U V W X Y Z # 

Dirty Diana Tabs (ver.1)

Jackson Michael
Rating:
0/5 (0 votes)

Hard to play? Try these video lessons and learn fast.
                PROPS GO TO: Bdee

INTRO/VERSE:                  
E:--10---10----------6---8---
b:--10------11-------8---10--
g:--11------------12-8---10--
d:--12---------12----8---10--
a:--12---------------6---8---
e:--10--------------------------


CHORUS:
E:-------------------6---8---
b:-----------11------8---10--
g:-----12-12----12---8---10--
d:--12---------------8---10--
a:----or-could-play--6---8-----
e:----bass-instead-----------


OUTRO:
E:--15----15---13----11--13--
b:-------------------11--13--
g:-------------------9---11--
d:-------------------9---11--
a:---------------------------
e:---------------------------


Just Fixing Tab A Little Bdee.
            
Hard to play? Try these video lessons and learn fast. | Correct




comments powered by Disqus
↑ Back to top | Tablatures and chords are parodies/interpretations of the original songs. You may use it for private study, scholarship, research or language learning purposes only