» » »

Love You Save Bass tabs (ver.1)

Artists:  A B C D E F G H I J K L M N O P Q R S T U V W X Y Z # 

Love You Save Bass tabs (ver.1)

Jackson 5
Rating:
5/5 (2 votes)

Tabs too difficult? Try these video lessons and learn fast.
                "Stop" Intro
G-----------------------|
D--2------2------2-----2|
A-----------------------|
E-----------------------|

Chorus
G----------------|---------------|--------------|--------|
D----------------|---------------|---0-0-2-2----|--------|
A-----0-0-2-23-32|0-0-2-2-3-35-53|2-2-------2-2-|3-2--0--|
E-3-3------------|---------------|-------------3|-------3|

Verse x2 
G-------------|-----------|---------|---------|
D-------------|-----------|------0-2|---------|
A-------2-3---|0-(0)3-5---|2-(2)----|3-2----0-|
E--3-(3)------|-----------|---------|--------3|

Chorus
G----------------|---------------|--------------|--------|
D----------------|---------------|---0-0-2-2----|--------|
A-----0-0-2-23-32|0-0-2-2-3-35-53|2-2-------2-2-|3-2--0--|
E-3-3------------|---------------|-------------3|-------3|

Bridge x2
G-----------------------|
D---2--------2-------2-2|
A---------------------2-|
E--------0-------0(0)---|


Verse x2
G-------------|-----------|---------|---------|
D-------------|-----------|------0-2|---------|
A-------2-3---|0-(0)3-5---|2-(2)----|3-2----0-|
E--3-(3)------|-----------|---------|--------3|

Chorus
G----------------|---------------|--------------|--------|
D----------------|---------------|---0-0-2-2----|--------|
A-----0-0-2-23-32|0-0-2-2-3-35-53|2-2-------2-2-|3-2--0--|
E-3-3------------|---------------|-------------3|-------3|

Bridge x2,                                            Then Really quick b4 the chorus:
G---------|-----------|----------|------------|       -------  
D--22-----|--22-------|--22------|--22--------|       -2200--
A---------|-----------|(2)-------|------------|       -----3300
E------0-0|--------0-0|-------0-0|---------0-0|       ---------

Chorus(until fade out)
G----------------|---------------|--------------|--------|
D----------------|---------------|---0-0-2-2----|--------|
A-----0-0-2-23-32|0-0-2-2-3-35-53|2-2-------2-2-|3-2--0--|
E-3-3------------|---------------|-------------3|-------3|
            
Tabs too difficult? Try these video lessons and learn fast.




comments powered by Disqus
↑ Back to top | Tablatures and chords are parodies/interpretations of the original songs. You may use it for private study, scholarship, research or language learning purposes only